Guitar Tabs, Chords and Lyrics
Major upgrade!! After one year development the new version of Chordie is now online! Please give feedback.


Bedlam in Belgium  AC/DC

AC/DC-Bedlam in Belgium
Flick of the Switch (1983)
Transcribed by: playinbass1432
Email: playinbass1432@hotmail.com
Standard Tuning
Intro: (0:14)
[A]  
 
 G|-----------------|-----------------|-----------------|-----------------|
 D|-----------------|-----------------|-----------------|-----------------|
 A|-----------------|-----------------|-----------------|-----------------|
 E|-5-5-5-5-5-5-5-5-|-5-5-5-5-5-5-5-5-|-5-5-5-5-5-5-5-5-|-5-5-5-5-5-5-5-5-|

Verse 1:
[A]  
 
 G|-----------------|-----------------|-----------------|-----------------|
 D|-----------------|-----------------|-----------------|-----------------|
 A|-----------------|-----------------|-----------------|-----------------|
 E|-5-5-5-5-5-5-5-5-|-5-5-5-5-5-5-5-5-|-5-5-5-5-5-5-5-5-|-5-5-5-5-5-5-5-5-|

[A]  
 
 G|-----------------|-----------------|-----------------|-----------------|
 D|-----------------|-----------------|-----------------|-----------------|
 A|-----------------|-----------------|-----------------|-----------------|
 E|-5-5-5-5-5-5-5-5-|-5-5-5-5-5-5-5-5-|-5-5-5-5-5-5-5-5-|-5-5-5-5-5-5-5-5-|

Pre Chorus 1:
[C] [B] [D] [A]  
 
 G|-----------------|-----------------|-----------------|-----------------|
 D|-----------------|-----5-----------|-----------------|-----------------|
 A|-----------------|---5---5---------|-----------------|-----------------|
 E|-8-8-8-8-8-8-8-x-|-7---------0-3-5-|---5-5-5-5-5-5-5-|-5-5-5-5-5-5-5-5-|

[C] [B] [D]  
 
 G|-----------------|-----------------|-----------------|-----------------|
 D|-----------------|-------------5---|-----------------|-----------(5)---|
 A|-----------------|-----------5---5-|-5-5-5-5-5-5-5-5-|-5-5-5-5-5-------|
 E|-8-8-8-8-8-8-8-8-|-8-8-8-8-7-------|-----------------|-----------------|

Chorus 1:
[A] [G] [D] [C] [A]  
 
 G|-----------------|-----------------|-----------------|-----------------|
 D|-----------------|-----------------|-----------------|-----------------|
 A|-----------------|-5---------------|-----------------|-----------------|
 E|-5-----3---------|-------8-------5-|---5-5-5-5-5-5-5-|-5-5-5-5-5-5-5-5-|

[A] [G] [D] [C] [A]  
 
 G|-----------------|-----------------|-----------------|-----------------|
 D|-----------------|-----------------|-----------------|-----------------|
 A|-----------------|-5---------------|-----------------|-----------------|
 E|-5-----3---------|-------8-------5-|---5-5-5-5-5-5-5-|-5-5-5-5-5-5-5-5-|

Verse 2:
[A]  
 
 G|-----------------|-----------------|-----------------|-----------------|
 D|-----------------|-----------------|-----------------|-----------------|
 A|-----------------|-----------------|-----------------|-----------------|
 E|-5-5-5-5-5-5-5-5-|-5-5-5-5-5-5-5-5-|-5-5-5-5-5-5-5-5-|-5-5-5-5-5-5-5-5-|

[A]  
 
 G|-----------------|-----------------|-----------------|-----------------|
 D|-----------------|-----------------|-----------------|-----------------|
 A|-----------------|-----------------|-----------------|-----------------|
 E|-5-5-5-5-5-5-5-5-|-5-5-5-5-5-5-5-5-|-5-5-5-5-5-5-5-5-|-5-5-5-5-5-5-5-5-|

Pre Chorus 2:
[C] [B] [D] [A]  
 
 G|-----------------|-----------------|-----------------|-----------------|
 D|-----------------|-----5-----------|-----------------|-----------------|
 A|-----------------|---5---5---------|-----------------|-----------------|
 E|-8-8-8-8-8-8-8-8-|-7-------------5-|---5-5-5-5-5-5-5-|-5-5-5-5-5-5-5-5-|

[C] [B] [D]  
 
 G|-----------------|-----------------|-----------------|-----------------|
 D|-----------------|-------------5---|-----------------|-------------5-6-|
 A|-----------------|-----------5---5-|-5-5-5-5-5-5-5-5-|-5-5-5-5-5-5-----|
 E|-8-8-8-8-8-8-8-8-|-8-8-8-8-7-------|-----------------|-----------------|

Chorus 2:
[A] [G] [D] [C] [A]  
 
 G|-----------------|-----------------|-----------------|-----------------|
 D|-7-----5---------|-----------------|-----------------|-----------------|
 A|-----------------|-5---------------|-----------------|-----------------|
 E|-----------------|-------8-------5-|---5-5-5-5-5-5-5-|-5-5-5-5-5-5-5-5-|

[A] [G] [D] [C] [A]  
 
 G|-----------------|-----------------|-----------------|-----------------|
 D|-7-----5---------|-----------------|-----------------|-----------------|
 A|-----------------|-5---------------|-----------------|-----------------|
 E|-----------------|-------8-------5-|---5-5-5-5-5-5-5-|-5-5-5-5-5-5-5-5-|

[A] [G] [D] [C] [A] [G] [D] [C]  
 
 G|-----------------|-----------------|-----------------|-----------------|
 D|-7---------------|-----------------|-----------------|-----------------|
 A|-----------------|-5---------------|-----------------|-5---------------|
 E|-------3---------|-------8---------|-5-----3---------|-------8---------|

( Tab from: http://www.guitartabs.cc/tabs/a/ac_dc/bedlam_in_belgium_btab.html )
[A] [G] [D] [C] [A]  
 
 G|-----------------|-----------------|-----------------|-----------------|
 D|-----------------|-----------------|-----------------|-----------------|
 A|-----------------|-5---------------|-----------------|-----------------|
 E|-5-----3---------|-------8-------5-|---5-5-5-5-5-5-5-|-5-5-5-5-5-5-5-5-|

[A]  
 
 G|-----------------|-----------------|
 D|-----------------|-----------------|
 A|-----------------|-----------------|
 E|-5-5-5-5-5-5-5-5-|-5-5-5-5-5-5-5-5-|

Guitar Solo:
[C] [B] [D] [A]  
 
 G|-----------------|-----------------|-----------------|-----------------|
 D|-----------------|-----5-----------|-----------------|-----------------|
 A|-----------------|---5---5---------|-----------------|-----------------|
 E|-8-8-8-8-8-8-8-8-|-7-------------5-|---5-5-5-5-5-5-5-|-5-5-5-5-5-5-5-5-|

[C] [B] [D] [A]  
 
 G|-----------------|-----------------|-----------------|-----------------|
 D|-----------------|-----5-----------|-----------------|-----------------|
 A|-----------------|---5---5---------|-----------------|-----------------|
 E|-8-8-8-8-8-8-8-8-|-7---------0-3-5-|---5-5-5-5-5-5-5-|-5-5-5-5-5-5-5-5-|

[C] [B] [D]  
 
 G|-----------------|-----------------|-----------------|-----------------|
 D|-----------------|-----------5-6---|-----------------|-----------------|
 A|-----------------|---------------5-|-5-5-5-5-5-5-5-5-|-5-5-5-5-5-5-5-5-|
 E|-8-8-8-8-8-8-8-8-|-8-8-8-8-7-------|-----------------|-----------------|

Bridge:
[A] [G] [D] [C] [A] [G] [D] [C]  
 
 G|-----------------|-----------------|----------------|------------------|
 D|-----------------|-----------------|----------------|------------------|
 A|-----------------|-5---------------|----------------|-5----------------|
 E|-5-----3---------|-------8---------|-5-----3--------|-------8----------|

[A] [G] [D] [C] [A]  
 
 G|-----------------|-----------------|----------------|------------------|
 D|-----------------|-----------------|----------------|------------------|
 A|-----------------|-5---------------|----------------|------------------|
 E|-5-----3---------|-------8---------|-5--------------|-5--------------5-|

[A]  
 
 G|-----------------|-----------------|
 D|---------------7-|---7-7-7-7-7-7---|
 A|-----------------|-----------------|
 E|-----------------|-----------------|

Pre Chorus 3:
[A]  
 
 G|-----------------|-----------------|-----------------|-----------------|
 D|-7-7-7-7-7-7-7-7-|-7-7-7-7-7-7-7-7-|-7-7-7-7-7-7-7-7-|-7-7-7-7-7-4-----|
 A|-----------------|-----------------|-----------------|-------------7---|
 E|-----------------|-----------------|-----------------|-----------------|

Chorus 3:
[A] [G] [D] [C] [A]  
 
 G|-----------------|-----------------|-----------------|-----------------|
 D|-----------------|-----------------|-----------------|-----------------|
 A|-----------------|-5---------------|-----------------|-----------------|
 E|-5-----3---------|-------8-------5-|---5-5-5-5-5-5-5-|-5-5-5-5-5-5-5-5-|

[A] [G] [D] [C] [A]  
 
 G|-----------------|-----------------|-----------------|-----------------|
 D|-----------------|-----------------|-----------------|-----------------|
 A|-----------------|-5---------------|-----------------|-----------------|
 E|-5-----3---------|-------8-------5-|---5-5-5-5-5-5-5-|-5-5-5-5-5-5-5-5-|

[A] [G] [D] [C] [A]  
 
 G|-----------------|-----------------|-----------------|-----------------|
 D|-----------------|-----------------|-----------------|-----------------|
 A|-----------------|-5---------------|-----------------|-----------------|
 E|-5-----3---------|-------8-------5-|---5-5-5-5-5-5-5-|-5-5-5-5-5-5-5-5-|

[A] [G] [D] [C] [A]  
 
 G|-----------------|-----------------|-----------------|-----------------|
 D|-----------------|-----------------|-----------------|-----------------|
 A|-----------------|-5---------------|-----------------|-----------------|
 E|-5-----3---------|-------8-------5-|---5-5-5-5-5-5-5-|-5-5-5-5-5-5-5-5-|

Outro:
[A] [G] [D] [C] [A] [G] [D] [C]  
 
 G|-----------------|-----------------|----------------|------------------|
 D|-----------------|-----------------|----------------|------------------|
 A|-----------------|-5---------------|----------------|-5----------------|
 E|-5-----3---------|-------8---------|-5-----3--------|-------8----------|

[A] [G] [D] [C]  
 
 G|-----------------|-----------------|----------------|------------------|
 D|-----------------|-----------------|----------------|------------------|
 A|-----------------|-5---------------|----------------|------------------|
 E|-5-----3---------|-------8---------|----------------|------------------|

[A]  
 
 G|-----------------|-----------------|
 D|-----------------|-----------------|
 A|-----------------|-----------------|
 E|-5---------------|-----------------|


Important: The song above is NOT stored on the Chordie server. The original song is hosted at www.guitartabs.cc. Chordie works as a search engine and provides on-the-fly formatting. Chordie does not index songs against artists'/composers' will. To remove this song please click here.

Text color:
Chord color:
Chord grids: 
Font size:    
Page size: 

A B C D G
Rate #1 of 1 versions

Login - add to songbook

SHARE PAGE  



You need to log in to post comments