Guitar Tabs, Chords and Lyrics
Major upgrade!! After one year development the new version of Chordie is now online! Please give feedback.


Black Ice  AC/DC

Ac/Dc
Album: Black Ice
Intro/Vers: You can also play it like this, and when the heavy play
then add the bass note (A).
Riff 1
Am or
 
 e|-------------------| e|-------------------|
 B|-------------------| B|---1-----4p1---3-1-|
 G|---5-----8p5---7-5-| G|-2-2-2-2-2-2-2-2-2-|
 D|-7-7-7-7-7-7-7-7-7-| D|-2---2-2-----2---2-|
 A|-7---7-7-----7-----| A|(0)-(0)-----(0)-(0)|
 E|-------------------| E|-------------------|

Riff 2
[Am] [C] [D] [D] [C] [Am]  
 
 e|---------|---------|
 B|---------|---------|
 G|---------|---------|
 D|-7-10-12-|-12-10-7-|
 A|-7-10-12-|-12-10-7-|
 E|-5-8—-10-|-10-8—-5-|

Riff 3
Bm or Bm
 
 e|--------------------| e|----------------------|
 B|--------------------| B|---3-----6p3---5-3----|
 G|---7-----10p7---9-7-| G|-4-4-4-4-4-4-4-4-4---|
 D|-9-9-9-9-9--9-9-9-9-| D|-4---4-4-----4---4----|
 A|-9---9-9------9-----| A|----------------------|
 E|--------------------| E|----------------------|

End (Riff 4):
[Eb] [D] [C] [Am]  
 
 e|------------|
 B|------------|
 G|------------|

D|-13-12-10-7-|
A|-13-12-10-7-|
E|-11-10-8—-5-|
“Order of Black Ice”
Intro/Vers:
Riff 1 x12
Pre Chorus:
Riff 2 x2
Chorus:
Riff 1 x4
Vers 2:
Riff 3 x8
Riff 1 x4
Pre Chorus:
Riff 2 x4 (mini solo)
Solo
Riff 1 x4
Vers 3
Riff 3 x4
Riff 1 x4
Outro
Riff 2 x4
Riff 1 x10
Riff 4 and then ripp it of on the chord Am.
When the half of the pre chorus has been played a mini solo starts:
 
 e|-------------------------------------|
 B|-10b-8/10-10-8/10-10-8/10-10b--------|
 G|-----------------------------9-8-7-5-|
 D|-------------------------------------|
 A|-------------------------------------|
 E|-------------------------------------|

During solo play:
Solo (riff 1)
 
 e|-12b-15h12-12-11-12-11-12-11-12-12b-12\5-|-12-14-15-12-14—-12-----11-12-|
 B|-----------------------------------------|---------------15—-12-15------|
 G|-----------------------------------------|------------------------------|
 D|-----------------------------------------|------------------------------|
 A|-----------------------------------------|------------------------------|
 E|-----------------------------------------|------------------------------|

( Tab from: http://www.guitartabs.cc/tabs/a/ac_dc/black_ice_tab_ver_4.html )
 
 11-12-11-12-----11-12-17-15—-15-17-|
 -----------15-15-----------17------|
 -----------------------------------|
 -----------------------------------|
 -----------------------------------|
 -----------------------------------|

(Riff 3)
 
 e|------------------------------8b-|
 B|---------------------------------|
 G|---------------------------------|
 D|---------------------------------|
 A|---------------------------------|
 E|---------------------------------|

Livin’ down Livin’ doooaaaoown.
 
 --------------11b-----------------|-----------------|-5-5b-|
 -----------------12-10-12-10--10--|-----------------|------|
 ----------------------------11--9-|-----------------|------|
 ----------------------------------|-----------------|------|
 ----------------------------------|-----------------|------|
 ----------------------------------|-----------------|------|

...take it all And I’m gonna rip it out.
(Riff 2)
 
 e|---8-10-----|-10-8---|---8-10----|-5-5-5-|
 B|-10---------|-----10-|-10--------|-------|
 G|------------|--------|-----------|-------|
 D|------------|--------|-----------|-------|
 A|------------|--------|-----------|-------|
 E|------------|--------|-----------|-------|

oooooooooooooh black ice Black ice
 
 -----8-10------|-10-8-----|----------8-10-|-5-5-5-|
 ---10----------|-----10---|-8-10-8-10-----|-------|
 ---------------|----------|---------------|-------|
 ---------------|----------|---------------|-------|
 ---------------|----------|---------------|-------|
 ---------------|----------|---------------|-------|

Black ice Burn light Black iiiice
(Riff 1)
 
 e|-11b-11\-12-17p15-15—-17-|---------10--10—11-12---------|
 B|--------------------17---|-10-13-10--13--------10-10-10-|
 G|-------------------------|------------------------------|
 D|-------------------------|------------------------------|
 A|-------------------------|------------------------------|
 E|-------------------------|------------------------------|
 -----------10--10—11-12---------|
 ---10-13-10--13--------10-10-10-|
 --------------------------------|
 --------------------------------|
 --------------------------------|
 --------------------------------|

(Riff 1)
 
 e|----------15-15-15-15-15...-|
 B|----------------------------|
 G|----------------------------|
 D|----------------------------|
 A|----------------------------|
 E|----------------------------|

Burn lights...
Then join the mail guitar and play riff 1 untill the end:
 
 e|-11-10-8-15-15-15-15........................|

Play this until your fingers bleed and then rip it of at an Am.
There y’all go! My second tab, I did my best and made this tab on an acoustic guitar so
might not be as good as they could be but personally I think I rock.
AC/DC forever!
Tabbed by: André S (Mr. Macrew på Björkö)
2008-10-16

Important: The song above is NOT stored on the Chordie server. The original song is hosted at www.guitartabs.cc. Chordie works as a search engine and provides on-the-fly formatting. Chordie does not index songs against artists'/composers' will. To remove this song please click here.

Text color:
Chord color:
Chord grids: 
Font size:    
Page size: 

Am C D Eb
Rate #1 of 5 versions

Jango Player

Login - add to songbook

SHARE PAGE  




You need to log in to post comments