Guitar Tabs, Chords and Lyrics
Major upgrade!! After one year development the new version of Chordie is now online! Please give feedback.


Evil Walks  AC/DC

Tabbed by: Vinny A.
Album: For Those About To Rock We Salute You
Song: Evil Walks
Artist: AC/DC
Bassist: Cliff Williams
This is a pretty easy song, don't get thrown off by the fills here and there.
With a little practice and/or listening to the song, it's easy to pick up.
Intro
[E]  
 
 G|-----------------|-----------------|-----------------|-----------------|
 D|-----------------|-----------------|-----------------|-----------------|
 A|-----------------|-----------------|-----------------|-----------------|
 E|-0-0-------------|-----------------|-0-0-------------|-----------------|

[E] [A] [G]  
 
 G|-----------------|-----------------|-----------------|-----------------|
 D|-----------------|-----------------|-----------------|-----------------|
 A|-----------------|-----------------|-----------------|-----------------|
 E|-0-0-------------|-----------------|-0-0-------------|---5-------3-----|

[E] [F#] [G] [D] [A] [E] [F#] [G] [D]  
 
 G|-----------------|-----------------|-----------------|-----------------|
 D|-----------------|-----------------|-----------------|-----------------|
 A|---------------5-|-----------------|---------------5-|-----------------|
 E|-0-2---3---------|-------5---------|-0-2---3-3---3---|-----------------|

Pre-Verse 1
[E] [A] [E] [A] [G]  
 
 G|-----------------|-----------------|-----------------|-----------------|
 D|-----------------|-----------------|-----------------|-----------------|
 A|-----------------|-----------------|-----------------|-----------------|
 E|-0-0-0-0-0-0-0-5-|-5-5-5-5-5-5-5-x-|-0-0-0-0-0-0-0-5-|-5-5-5-5-5-5-5-3-|

Verse 1
[E] [A] [E] [A] [G]  
 
 G|-----------------|-----------------|-----------------|-----------------|
 D|-----------------|-----------------|-----------------|-----------------|
 A|-----------------|-----------------|-----------------|-----------------|
 E|-0-0-0-0-0-0-0-5-|-5-5-5-5-5-5-5-0-|-0-0-0-0-0-0-0-5-|-5-5-5-5-5-5-5-3-|

[E] [A] [G] [E] [C#D] [A] [C#D]  
 
 G|-----------------|-----------------|-----------------|-----------------|
 D|-----------------|-----------------|-----------------|-----------------|
 A|-----------------|-----------------|-------4-5-5-5---|-------4---------|
 E|-0-0-0-0-0-0-0-5-|-5-5-5-5-5-5-5-3-|-0-0-0---------5-|---------5-5-5---|

Chorus
[E] [F#] [G] [D] [A] [E] [F#] [G] [D] [A]  
 
 G|-----------------|-----------------|-----------------|-----------------|
 D|-----------------|-----------------|-----------------|-----------------|
 A|---------------5-|-----------------|---------------5-|-----------------|
 E|-0-2---3-3---3---|-------5---------|-0-2---3-3---3---|-------5---------|

[E] [F#] [G] [D] [A] [E] [F#] [G] [F#] [A]  
 
 G|-----------------|-----------------|-----------------|-----------------|
 D|-----------------|-----------------|-----------------|-----------------|
 A|---------------5-|-----------------|-----------------|-----------------|
 E|-0-2---3-3---3---|-------5---------|-0-2---3-3---3-2-|-------5---------|

Verse 2 (slight bend on the 1st slide in this verse)
[E] [A] [E] [A] [G]  
 
 G|-----------------|-----------------|-----------------|-----------------|
 D|-----------------|-----------------|-----------------|-----------------|
 A|-----------------|-----------------|-----------------|-----------------|
 E|-0-0-0-0-0-0-0-5-|-5-5-5-5-5-5-5-0-|-0-0-0-0-0-0-0-5-|-5-5-5-5-5-5-5-0-|

[E] [A] [C] [D] [C#] [E] [G] [A] [E]  
 
 G|-----------------|-----------------|-----------------|-----------------|
 D|-----------------|-----------------|-----------------|-----------------|
 A|-----------------|-----------3b/5\4|-----------------|-----------------|
 E|-0-0-0-0-0-0-0-5-|-5-5-5-5-5-------|-0-0-0-x-(3)-3-5-|-----5-5-5-5\0---|

Chorus
[E] [F#] [G] [D] [A] [E] [F#] [G] [D] [A]  
 
 G|-----------------|-----------------|-----------------|-----------------|
 D|-----------------|-----------------|-----------------|-----------------|
 A|---------------5-|-----------------|---------------5-|-----------------|
 E|-0-2---3-3---3---|-------5---------|-0-2---3-3---3---|-------5---------|

[E] [F#] [G] [D] [A] [E] [F#] [G] [D] [A]  
 
 G|-----------------|-----------------|-----------------|-----------------|
 D|-----------------|-----------------|-----------------|-----------------|
 A|---------------5-|-----------------|---------------5-|-----------------|
 E|-0-2---3-3---3---|-------5---------|-0-2---3-3---3---|-------5---------|

Solo Part 1
( Tab from: http://www.guitartabs.cc/tabs/a/ac_dc/evil_walks_btab_ver_2.html )
[E]  
 
 G|-----------------|-----------------|-----------------|-----------------|
 D|-----------------|-----------------|-----------------|-----------------|
 A|-----------------|-----------------|-----------------|-----------------|
 E|-0-0-------------|-----------------|-0-0-------------|-----------------|

[E] [A] [G]  
 
 G|-----------------|-----------------|-----------------|-----------------|
 D|-----------------|-----------------|-----------------|-----------------|
 A|-----------------|-----------------|-----------------|-----------------|
 E|-0-0-------------|-----------------|-0-0-------------|---5-------3-----|

[E] [A] [G] [E] [A] [G] [E]  
 
 G|-----------------|-----------------|-----------------|-----------------|
 D|-----------------|-----------------|-----------------|-----------------|
 A|-----------------|-----------------|-----------------|-----------------|
 E|-0-0-0-0-0-0-0-5-|---5-5-3---3-3-0-|-0-0-0-0-0-0-0-5-|---5-5-3---3-3-0-|

[E] [A] [G] [E] [A] [G] [E]  
 
 G|-----------------|-----------------|-----------------|-----------------|
 D|-----------------|-----------------|-----------------|-----------------|
 A|-----------------|-----------------|-----------------|-----------------|
 E|-0-0-0-0-0-0-0-5-|---5-5-3---3-3-0-|-0-0-0-0-0-0-0-5-|---5-5-3---3-3-0-|

Solo Part 2 (notes here start softly then gain some more punch towards end of this part)
[E] [A] [G] [E] [A] [G] [E]  
 
 G|-----------------|-----------------|-----------------|-----------------|
 D|-----------------|-----------------|-----------------|-----------------|
 A|-----------------|-----------------|-----------------|-----------------|
 E|-0-0-0-0-0-0-0-5-|---5-5-3---3-3-0-|-0-0-0-0-0-0-0-5-|---5-5-3---3-3-0-|

[E] [A] [G] [E] [A] [G] [E]  
 
 G|-----------------|-----------------|-----------------|-----------------|
 D|-----------------|-----------------|-----------------|-----------------|
 A|-----------------|-----------------|-----------------|-----------------|
 E|-0-0-0-0-0-0-0-5-|---5-5-3---3-3-0-|-0-0-0-0-0-0-0-5-|---5-5-3---3-3-0-|

[E] [A] [G] [E] [A] [G] [E]  
 
 G|-----------------|-----------------|-----------------|-----------------|
 D|-----------------|-----------------|-----------------|-----------------|
 A|-----------------|-----------------|-----------------|-----------------|
 E|-0-0-0-0-0-0-0-5-|---5-5-3---3-3-0-|-0-0-0-0-0-0-0-5-|---5-5-3---3-3-0-|

[E] [A] [G] [E] [A] [G] [E]  
 
 G|-----------------|-----------------|-----------------|-----------------|
 D|-----------------|-----------------|-----------------|-----------------|
 A|-----------------|-----------------|-----------------|-----------------|
 E|-0-0-0-0-0-0-0-5-|---5-5-3---3-3-0-|-0-0-0-0-0-0-0-5-|---5-5-3---3-3-0-|

Bridge
[E] [D] [A] [E] [D] [A]  
 
 G|-----------------|-----------------|-----------------|-----------------|
 D|-----------------|-----------------|-----------------|-----------------|
 A|-----------------|-5---------------|-----------------|-5---------------|
 E|-0-0-------------|---------5-------|-0-0-------------|---------5-------|

[E] [D] [A] [E] [D] [A]  
 
 G|-----------------|-----------------|-----------------|-----------------|
 D|-----------------|-----------------|-----------------|-----------------|
 A|-----------------|-5---------------|-----------------|-5---------------|
 E|-0-0-------------|---------5-------|-0-0-------------|---------5-------|

Chorus
[E] [F#] [G] [D] [A] [E] [F#] [G] [D] [A]  
 
 G|-----------------|-----------------|-----------------|-----------------|
 D|-----------------|-----------------|-----------------|-----------------|
 A|---------------5-|-----------------|---------------5-|-----------------|
 E|-0-2---3-3---3---|-------5---------|-0-2---3-3---3---|-------5---------|

[E] [F#] [G] [D] [A] [E] [F#] [G] [D] [A]  
 
 G|-----------------|-----------------|-----------------|-----------------|
 D|-----------------|-----------------|-----------------|-------7\0-------|
 A|---------------5-|-----------------|---------------5-|-----------------|
 E|-0-2---3-3---3---|-------5---------|-0-2---3-3---3---|-----------------|

[E] [F#] [G] [F#] [A] [E] [F#] [G] [F#] [A]  
 
 G|-----------------|-----------------|-----------------|-----------------|
 D|-----------------|-----------------|-----------------|-----------------|
 A|-----------------|-----------------|-----------------|-----------------|
 E|-0-2---3-3---3-2-|-------5---------|-0-2---3-3---3-2-|-------5---------|
 E F# G D A (-------------half speed------------)
 G|-----------------|-----------------|-----------------|-----------------|
 D|-----------------|-----------------|-----------------|-----------------|
 A|---------------5-|-----------------|---------------5-|-----------------|
 E|-0-2---3-3---3---|-------5---------|-0-0-2-3---------|-------5---------|


Important: The song above is NOT stored on the Chordie server. The original song is hosted at www.guitartabs.cc. Chordie works as a search engine and provides on-the-fly formatting. Chordie does not index songs against artists'/composers' will. To remove this song please click here.

Text color:
Chord color:
Chord grids: 
Font size:    
Page size: 

A C C# D E F# G
Rate #1 of 2 versions

Jango Player

Login - add to songbook

SHARE PAGE  




You need to log in to post comments