Guitar Tabs, Chords and Lyrics
Major upgrade!! After one year development the new version of Chordie is now online! Please give feedback.


Fire Your Guns  AC/DC

FIRE YOUR GUNS
As recorded by AC/DC
(From the 1990 Album THE RAZORS EDGE)
Words and Music by Angus and Malcolm Young
Transcribed by Noah Copeland
x 3 [C5]5 5 x x x x [D5]0 2 3 x x 0 2[A] 2 2 x x 2 [B5]4 4 x x
Am/C A5 G5 G5I
x 3 2 2 x x x 0 2 2 x x 3 x 0 0 3 3 3 5 5 x x x
E5 D5V A/C# Asus4/D
0 7 9 9 x x x 5 7 7 x x x 4 7 6 x x x x 0 2 3 x
x 2[C5/B] 5 5 x x
Gtr I (E A D G B E) - 'Angus Young'
Gtr II (E A D G B E) - 'Malcolm Young'
Gtr III (E A D G B E) - 'Misc. Guitar'
Intro
Fast Rock Q=176
[Am/C] [Am/C] [A5] [Am/A5] [Am/C] [Am/C] [A5] [Am/A5] 
[4/4] Gtr I
E E E E E E E E Q E E H E E E E E E E E Q E E H
 
 ||----------------------|-------------|---------------------|--------------||
 ||o---------------------|-------------|---------------------|-------------o||
 ||----2-(2)-2-2-(2)-2-2-|-2--2-2------|---2-(2)-2-2-(2)-2-2-|-2--2-2-------||
 ||----2-(2)-2-2-(2)-2-2-|-2--2-2------|---2-(2)-2-2-(2)-2-2-|-2--2-2-------||
 ||o---3p=0--0-3p=0--0-0-|-0--3-0------|---3p=0--0-3p=0--0-0-|-0--3-0------o||
 ||----------------------|-------------|---------------------|--------------||

|
| Gtr II
| W W E E E E E E E E Q E E H
 
 ||----------------------|-------------|---------------------|--------------||
 ||o---------------------|-------------|---------------------|-------------o||
 ||----------------------|-------------|---2-(2)-2-2-(2)-2-2-|-2--2-2-------||
 ||----------------------|-------------|---2-(2)-2-2-(2)-2-2-|-2--2-2-------||
 ||o---------------------|-------------|---3p=0--0-3p=0--0-0-|-0--3-0------o||
 ||----------------------|-------------|---------------------|--------------||

Gt[Am/C]rs I, II[Am/C] [A5] [Am/A5] [Am/C] [Am/C] [A5] [Am/A5]
E E E E E E E E Q E E H E E E E E E E E Q E E H
 
 ||----------------------|-------------|---------------------|--------------||
 ||o---------------------|-------------|---------------------|-------------o||
 ||----2-(2)-2-2-(2)-2-2-|-2--2-2------|---2-(2)-2-2-(2)-2-2-|-2--2-2-------||
 ||----2-(2)-2-2-(2)-2-2-|-2--2-2------|---2-(2)-2-2-(2)-2-2-|-2--2-2-------||
 ||o---3p=0--0-3p=0--0-0-|-0--3-0------|---3p=0--0-3p=0--0-0-|-0--3-0------o||
 ||----------------------|-------------|---------------------|--------------||

Verse 1
H E [A5]E E E Q [Am/A5] E E H H E [A5]E E E Q [Am/A5] E E H 4x
 
 ||---------------|-------------|--------------|--------------||
 ||o--------------|-------------|--------------|-------------o||
 ||---------2-2-2-|-2--2-2------|--------2-2-2-|-2--2-2-------||
 ||---------2-2-2-|-2--2-2------|--------2-2-2-|-2--2-2-------||
 ||o--------0-0-0-|-0--3-0------|--------0-0-0-|-0--3-0------o||
 ||---------------|-------------|--------------|--------------||

Chorus 1
[G5]H [AsuA5/D]Q Q [C5]Q E [A5]E +H 3x
 
 ||--3----------|----------------||
 ||o-3----3-----|---------------o||
 ||--0----2--2--|-5--5-2-(2)-----||
 ||--0----0--2--|-5--5-2-(2)-----||
 ||o------0--0--|-3--3-0-(0)----o||
 ||--3----------|----------------||

E5 D5V A/C# C5 C5/B A5 G5I
[B] [B] [B] [B] [B] [B] [B] [B]  
 
 |-----------|-----------|-----------|-----------|
 |-----------|-----------|-----------|-----------|
 |-9----7----|-6----5----|-5----5----|-2---------|
 |-9----7----|-7----5----|-5----5----|-2----5----|
 |-7----5----|-4----3----|-3----2----|-0----5----|
 |-0---------|-----------|-----------|------3----|

Post Chorus 1
E [Am/C]E E [A5Am/C]E E E [A5]E E Q [AmA5]E E H 4x
 
 ||----------------------|--------------||
 ||o---------------------|-------------o||
 ||----2-(2)-2-2-(2)-2-2-|-2--2-2-------||
 ||----2-(2)-2-2-(2)-2-2-|-2--2-2-------||
 ||o---3p=0--0-3p=0--0-0-|-0--3-0------o||
 ||----------------------|--------------||

Verse 2
H E [A5]E E E Q [Am/A5] E E H H E [A5]E E E Q [Am/A5] E E H 4x
 
 ||---------------|-------------|--------------|--------------||
 ||o--------------|-------------|--------------|-------------o||
 ||---------2-2-2-|-2--2-2------|--------2-2-2-|-2--2-2-------||
 ||---------2-2-2-|-2--2-2------|--------2-2-2-|-2--2-2-------||
 ||o--------0-0-0-|-0--3-0------|--------0-0-0-|-0--3-0------o||
 ||---------------|-------------|--------------|--------------||

Chorus 2
[G5]H [AsuA5/D]Q Q [C5]Q E [A5]E +H 3x
 
 ||--3----------|----------------||
 ||o-3----3-----|---------------o||
 ||--0----2--2--|-5--5-2-(2)-----||
 ||--0----0--2--|-5--5-2-(2)-----||
 ||o---------0--|-3--3-0-(0)----o||
 ||--3----------|----------------||

D5V D5V A/C# C5 C5/B A5 G5I
Gtr I
~~ ~
H E E E E E Q. H W E S S H +Q
 
 |--------------|---------------|----------------|--------------------|
 |--------------|---------------|----------------|--------------------|
 |----------5-7-|-7b9r7---------|-[7]b9==========|=7r-7p5-------------|
 |--------7-----|---------------|----------------|--------7-----(7)---|
 |--------------|---------------|----------------|--------------------|
 |--------------|---------------|----------------|--------------------|

|
| Gtr II
| H H H H H H H H
 
 |--------------|---------------|----------------|--------------------|
 |--------------|---------------|----------------|--------------------|
 |-9----7-------|-6--------5----|--5--------5----|-2------------------|
 |-9----7-------|-7--------5----|--5--------5----|-2---------5--------|
 |-7----5-------|-4--------3----|--3--------2----|-0---------5--------|
 |-0------------|---------------|----------------|-----------3--------|

Post Chorus 2
[Am/C] [A5Am/C] [A5] [AmA5] |-3--|
W H A Q A E E E
 
 |---------------------|-----------------------------|
 |---------------------|-----------------------------|
 |---------------------|--------7b9==7r--7b9==7r-7p5-|
 |---------------------|-----------------------------|
 |---------------------|-----------------------------|
 |---------------------|-----------------------------|

|
| E E E E E E E E Q E E H
 
 |---------------------|-----------------------------|
 |---------------------|-----------------------------|
 |---2-(2)-2-2-(2)-2-2-|-2--2-2----------------------|
 |---2-(2)-2-2-(2)-2-2-|-2--2-2----------------------|
 |---3p=0--0-3p=0--0-0-|-0--3-0----------------------|
 |---------------------|-----------------------------|

[Am/C] [A5Am/C] [AmA5]  
[E] [E] [E] [E] [B] [B] [E] [E] [E] [E]  
 
 |---------------------|----------5-----|
 |---5-----------------|----------------|
 |-7----5--------------|------------5-7-|
 |---------------------|----------------|
 |---------------------|----------------|
 |---------------------|----------------|

|
| E E E E E E E E Q E E H
 
 |---------------------|----------------|
 |---------------------|----------------|
 |---2-(2)-2-2-(2)-2-2-|-2--2-2---------|
 |---2-(2)-2-2-(2)-2-2-|-2--2-2---------|
 |---3p=0--0-3p=0--0-0-|-0--3-0---------|
 |---------------------|----------------|

H [Am/C] [A5Am/C] E E [A5]E E A E E A [Am/CA5]+H.
 
 |---------------------|---------------------------|
 |---------------------|---------8-----------------|
 |-----------------5-7-|-7b9==7r---7b8==(7)--------|
 |--------------7------|---------------------------|
 |---------------------|---------------------------|
 |---------------------|---------------------------|

|
| E E E E E E E E Q E E H
 
 |---------------------|---------------------------|
 |---------------------|---------------------------|
 |---2-(2)-2-2-(2)-2-2-|------2----------2--2------|
 |---2-(2)-2-2-(2)-2-2-|------2----------2--2------|
 |---3p=0--0-3p=0--0-0-|------0----------3--0------|
 |---------------------|---------------------------|

Guitar Solo
[C5D5]Gtr III[C5A] [C5] [A] [C5A]
W E E E E +Q E E E E E E +H
| | | | | | | | | | | |
[/] [/] [/] [/] [/] [/] [/] [/] [/] [/] [/] [/] 
H Q Q E Q. +Q E E A +E E E E +H
 
 |----------------------||-------------------|----------------------------|
 |----------------------||-------------------|----------------------------|
 |-7r---------5---------||-5h7------(7)--5---|-7b9==([7])r-[7]-5----------|
 |------------------7---||-----------------7-|-------------------7-(7)----|
 |----------------------||-------------------|----------------------------|
 |----------------------||-------------------|----------------------------|

|
| E E E E E E E E W W
 
 |----------------------||-------------------|----------------------------|
 |----------------------||-------------------|----------------------------|
 |----2-(2)-2-2-(2)-2-2-||-------------------|----------------------------|
 |----2-(2)-2-2-(2)-2-2-||-------------------|----------------------------|
 |----3p=0--0-3p=0--0-0-||-------------------|----------------------------|
 |----------------------||-------------------|----------------------------|

[C5D5]E E E E Q [C5] E [A]E [C5] Q [B5A]E E +H
| | | | | | | | | | |
[/] [/] [/] [/] [/] [/] [/] [/] [/] [/] [/] 
~~~~~~ ~~~~~~~~~~~~
E E E E E E A +Q +H. Q
 
 |-------------------------|----------------------|
 |-------------8b10==(8)---|-(8)r-----------------|
 |-5h7-7-7-7---------------|----------------------|
 |-------------------------|----------------------|
 |-------------------------|----------------------|
 |-------------------------|---------------(17)\--|

[C5D5]E E E E +Q [C5A]E E [C5A]E E [C5] E [A]E +H [C5] E [D5]E E E Q [C5]E [A]E
| | | | | | | | | | | | | | | | | | |
[/] [/] [/] [/] [/] [/] [/] [/] [/] [/] [/] [/] [/] [/] [/] [/] [/] [/] [/] 
~
E E H Q Q E E +Q A +Q Q S S E E E S S E
 
 |-----------------|------------------------------|-------------------------|
 |-----------------|------------------------------|-------------------------|
 |-5h7-7-------5---|-----(5)--------[7]b8==([7])--|-([9])---7p5---5-7-8p7p5-|
 |-----------------|-5-------7-(7)----------------|-------------7-----------|
 |-----------------|------------------------------|-------------------------|
 |-----------------|------------------------------|-------------------------|

[C5]Q [B5]E [A]E +H E [AmA5]E E E [Am/CA5]E E E E
| | | | | | | | | | |
[/] [/] [/] [/] [/] [/] [/] [/] [/] [/] [/] 
~
|--3--|
E E E E +Q E E +E E E E E E E Q
 
 |---------------------------------|--------------------------|
 |---------------------------------|--------------------------|
 |-7b8-7b9-7b8-7b9==(7)r--7b8-7b9==|=(7)r-7-7b9r7-9p7p==5-----|
 |---------------------------------|----------------------7---|
 |---------------------------------|--------------------------|
 |---------------------------------|--------------------------|

[A5]Q [AmA5]E E H
| | |
[/] [/] [/]  
E A +Q E S +S S S E E
 
 |------------------------------------------|
 |------------------------------------------|
 |---[7]b9==([7])r---[7]-7b9==(7)r-7p5-7-5--|
 |------------------------------------------|
 |------------------------------------------|
 |------------------------------------------|

[AmA5] [Am/CA5]  
[E] [E]| [E]| [E]| [E]| [E]| [E]| [E]|
[/] [/] [/] [/] [/] [/] [/]  
 
 |------6------|

S S E S S E E E E E E E
 
 |-----------------------------|
 |-----------------------------|

|-0h2h5-0h2h5-0h2h==4h5p4p==2-|
 
 |-----------------------------|
 |-----------------------------|
 |-----------------------------|

[A5]Q [AmA5]E E H E [AmA5]E E E [Am/C] E [A5]E E E
| | | | | | | | | |
[/] [/] [/] [/] [/] [/] [/] [/] [/] [/] 
S S E E E +E +E E E +H +Q E E
 
 |------------------------------|--------------------5---|
 |------------------------------|----------------------8-|
 |-------------------------7b8==|=(7)r-------(7)b9-------|
 |-5p4p2-5-5-(5)b6==(5)r--------|------------------------|
 |------------------------------|------------------------|
 |------------------------------|------------------------|

[A5] Q [AmA5]E E H E [AmA5]E E E [Am/C] E [A5]E E E
| | | | | | | | | |
[/] [/] [/] [/] [/] [/] [/] [/] [/] [/] 
~~~~~~
 
 |----3----|

A +E E E E +Q. E Q Q +Q Q Q
 
 |-------------------------|------------------------------|
 |-8----(8)----------------|------------------------------|
 |-7b9==(7)r-7-5-7-(7)---2-|-2tr5---5b7====(5)r---5h==7---|
 |-------------------------|------------------------------|
 |-------------------------|------------------------------|
 |-------------------------|------------------------------|

[A5] Q [AmA5]E E H
| | |
[/] [/] [/]  
~
A +Q H E S S
 
 |----------------------------|
 |---------------------10h13--|
 |-5b7==(5)r--5---------------|
 |----------------------------|
 |----------------------------|
 |----------------------------|

E [Am/A5] E E E [Am/C] E [A5]E E E [A5] Q [Am/C] E [A5]E H
| | | | | | | | | |
[ Tab /]fro[/]m: ht[/]tp://w[/]ww.gu[/]itarta[/]bs.cc[/]/tabs/a[/]/ac_dc/fi[/]re_yo[/]ur_guns_tab_ver_2.html ]
 
 |---3---| |---3---| |---3---| |--3--| |---3---| |--3--|

E E E E E E E E E E E E E E E E E E E E A +Q
 
 |---------------------------------------------------------------------------------|
 |-10----10h13------10h13------10h13-------10h13----10h13------10h13----8b10==(8)--|
 |----12---------12---------12---------12--------12---------12-------12------------|
 |---------------------------------------------------------------------------------|
 |---------------------------------------------------------------------------------|
 |---------------------------------------------------------------------------------|

E [Am/C]E [A5] E E [Am/C]E [A5] E E E [A5] Q [Am/C] E [A5]E H
| | | | | | | | | |
[/] [/] [/] [/] [/] [/] [/] [/] [/] [/] 
|--3--|
+E E +Q E +Q E +Q +Q Q Q Q
 
 |--------------------------------------|------------------------|
 |-(8)r-8b10==(8)r---8b10==(8)r---8b10==|=(8)--(8)r-----10-13----|
 |--------------------------------------|------------------------|
 |--------------------------------------|------------------------|
 |--------------------------------------|------------------------|
 |--------------------------------------|------------------------|

[A5]  
[B] [E] [E]| [E]| [E]|
[/] [/] [/] 
 
 |-----3-----|

Q +Q +Q q q
 
 |-------------------------------------|
 |-------------------------------------|
 |-13b15===(13)b17===(13)r---13---12---|
 |-------------------------------------|
 |-------------------------------------|
 |-------------------------------------|

[A5] Q [Am/A5] E E H H E [A5] E E E
| | | | | |
[/] [/] [/] [/] [/] [/] 
E E E E E E E E Q Q E E A +Q
 
 |----------------------|---------------15b17==(15)---|
 |-10-10----------------|-----------------------------|
 |-------12-11-9--------|------------14---------------|
 |---------------10-----|-[7]--7\---------------------|
 |------------------0-0-|-----------------------------|
 |----------------------|-----------------------------|

[A5] Q [Am/C] E [A5]E H
| | |
[/] [/] [/]  
+Q A +Q H
 
 |-(15)r--15b17==(15)---15r----||
 |-----------------------------||
 |-----------------------------||
 |-----------------------------||
 |-----------------------------||
 |-----------------------------||

Out-Chorus/Solo
[G5]Gtr II[Asus4/A5] [C5] [A5]
H Q Q Q E E +H
| | | | | | |
[/] [/] [/] [/] [/] [/] [/] 
Gtr I
~~~~~~~
E E E E E E E E E E E E +Q E E
 
 |---12-12-12-12-12-12-12-|--------------------------|
 |------------------------|-13-----------------------|
 |------------------------|----14-14-14-(14)--13s14--|
 |------------------------|--------------------------|
 |------------------------|--------------------------|
 |------------------------|--------------------------|

[G5] H [AsuA5/D]Q Q [C5] Q E [A5] E +H
| | | | | | |
[/] [/] [/] [/] [/] [/] [/] 
A +Q +Q Q Q E E E E +Q E E
 
 |-14b15==(14)--(14)r-----------|---------------------------|
 |-15b17==(15)--(15)r-----(3)/--|-20-19-17-17-(17)\------13-|
 |------------------------------|--------------------/14----|
 |------------------------------|---------------------------|
 |------------------------------|---------------------------|
 |------------------------------|---------------------------|

[G5] H [Asus4/D] Q [A5] Q
| | |
[/] [/] [/] 
A +Q A +Q A +E E A +E E
 
 |-15-----(15)---15-----(15)---15-----(15)--15---15-----(15)--15----|
 |-15b17==(15)r--15b17==(15)r--15b17==(15)-(15)r-15b17==(15)-(15)r--|
 |------------------------------------------------------------------|
 |------------------------------------------------------------------|
 |------------------------------------------------------------------|
 |------------------------------------------------------------------|

[C5] Q E [A5] E +H
| | | |
[/] [/] [/] [/]  
 
 |----------3-----------|

A +E E E A +E E. S E. S E. S
 
 |-15-----(15)--15---x-15-----(15)-15-------15-------15-------|
 |-15b17==(15)-(15)r-x-15b17==(15)-----(17)-----(17)-----(17)-|
 |------------------------------------------------------------|
 |------------------------------------------------------------|
 |------------------------------------------------------------|
 |------------------------------------------------------------|

E5 D5V A/C# C5
[B]| [B]| [B]| [B]|
[/] [/] [/] [/] 
 
 |----------3-----------| |----------3-----------| |----------3-----------| |----------3-----------|

E. S E. S E. S E. S E. S E. S E. S E. S E. S E. S E. S E. S
 
 |-15-------15-------15-------15-------15-------15-------|-15-------15-------15-------15-------15-------15---------|
 |-----(17)-----(17)-----(17)-----(17)-----(17)-----(17)-|-----(17)-----(17)-----(17)-----(17)-----(17)-----(17)---|
 |-------------------------------------------------------|---------------------------------------------------------|
 |-------------------------------------------------------|---------------------------------------------------------|
 |-------------------------------------------------------|---------------------------------------------------------|
 |-------------------------------------------------------|---------------------------------------------------------|

[C5] [C5/B]  
[B]| [B]|
[/] [/]  
 
 |----------3-----------| |----------3-----------|

E. S E. S E. S E. S E. S E. S
 
 |-15-------15-------15-------15-------15-------15--------|
 |-----(17)-----(17)-----(17)-----(17)-----(17)-----(17)r-|
 |--------------------------------------------------------|
 |--------------------------------------------------------|
 |--------------------------------------------------------|
 |--------------------------------------------------------|

A5 G5I
[B]| [B]|
[/] [/]  
a +H Q a +Q
 
 |-15-----(15)---------15b17==(15)r--|
 |-15b17==(15)r----15----------------|
 |-----------------------------------|
 |-----------------------------------|
 |-----------------------------------|
 |-----------------------------------|

[AmA5] [AmA5]  
[E] [E]| [E]| [E]| [E]| [E]| [E]| [E]|
[/] [/] [/] [/] [/] [/] [/] 
~~~~
A +H. A +E +E
 
 |-15b17==(15)r-----------15b17==(15)-(15)-|
 |-----------------------------------------|
 |-----------------------------------------|
 |-----------------------------------------|
 |-----------------------------------------|
 |-----------------------------------------|

[A5] Q [AmA5]E E H E [AmA5]E E E [AmA5]E E E E
| | | | | | | | | |
[/] [/] [/] [/] [/] [/] [/] [/] [/] [/] 
~~~~~~~~~~~~~~~
+Q. +E H W
 
 |-(15)----(15)r------|-----------------|
 |--------------------|-----------------|
 |--------------------|-----------------|
 |--------------------|-----------------|
 |--------------------|-----------------|
 |--------------------|-----------------|

[A5]Q [AmA5]E E H
| | |
[/] [/] [/]  
H A Q A E A E
 
 |-----------------------------------------------|
 |----------------17------------17-----------17--|
 |--------20b22==(20)r--20b22==(20)r-20b22==(20)-|
 |-----------------------------------------------|
 |-----------------------------------------------|
 |-----------------------------------------------|

E [AmA5]E E E [AmA5]E E E E [A5]Q [AmA5]E E H
| | | | | | | | | |
[/] [/] [/] [/] [/] [/] [/] [/] [/] [/]  
+Q Q H W
 
 |---------------------|-------------|
 |-(17)----------------|-------------|
 |-(20)r---------------|-------------|
 |---------------------|-------------|
 |---------------------|-------------|
 |---------------------|-------------|

E [AmA5]E E E [AmA5]E E E E [A5]Q [AmA5]E E H E [AmA5]E E E [Am/A5] E E E E
| | | | | | | | | | | | | | | | |
[/] [/] [/] [/] [/] [/] [/] [/] [/] [/] [/] [/] [/] [/] [/] [/] [/] 
W H Q E A +E +Q Q E E Q
 
 |-----------------|-------------20b22==(20)-|-(20)r---20---17--------------|
 |-----------------|-------------------------|-----------------17-20b22=====|
 |-----------------|-------------------------|------------------------------|
 |-----------------|-------------------------|------------------------------|
 |-----------------|-------------------------|------------------------------|
 |-----------------|-------------------------|------------------------------|

[A5] Q [AmA5]E E H E [AmA5]E E E [A5] E [A5] E E E
| | | | | | | | | |
[/] [/] [/] [/] [/] [/] [/] [/] [/] [/] 
+H Q. A +E +Q Q E E E E
 
 |-----------------20b22==(20)-|-(20)r---20---17----------|
 |-(20)r-----------------------|-----------------20-17----|
 |-----------------------------|-----------------------19-|
 |-----------------------------|--------------------------|
 |-----------------------------|--------------------------|
 |-----------------------------|--------------------------|

[A5] Q [Am/C] E [A5] E H
| | |
[/] [/] [/]  
A +E. S E A +E +Q Q
 
 |-------------------------------------------|
 |--------------20-----------------------20--|
 |-19b21==(19)r----19-19b21==(19)-(19)r------|
 |-------------------------------------------|
 |-------------------------------------------|
 |-------------------------------------------|

[Am/C] [A5] [Am/C] [A5] 
[E] [E]| [E]| [E]| [E]| [E]| [E]| [E]|
[/] [/] [/] [/] [/] [/] [/] 
A +E E A +Q E A +Q E
 
 |-----------------------------------------------------|
 |--------------20----------------20----------------20-|
 |-19b21==(19)r----19b21==(19)r------19b21==(19)r------|
 |-----------------------------------------------------|
 |-----------------------------------------------------|
 |-----------------------------------------------------|

[A5] [Am/C] [A5] Gt[C5A5]r II[C5] [A5]
Q E E H E E E E E E Q
| | | | | | | |
[/] [/] [/] [/] [/] [/] [/] [/] 
~~~~~~~~~~~~~~~~ ~~~~~~~~~~~~~
A +Q E A +E +Q. +E H E A +E +E +E
 
 |-------------------------------------------|-----------15b17==(15)-(15)-(15)-|
 |---------------20--------------------------|---------------------------------|
 |-19b21==(19)r-----19b21==(19)-(19)---(19)r-|---------------------------------|
 |-------------------------------------------|---------------------------------|
 |-------------------------------------------|---------------------------------|
 |-------------------------------------------|---------------------------------|

E [C5] E [A5]E E [C5A5]E E Q E [C5] E [A5]E E [C5A5]E E E E
| | | | | | | | | | | |
[/] [/] [/] [/] [/] [/] [/] [/] [/] [/] [/] [/] 
~~~~~~~~~~ ~~~~~~~~~~~~~~~~~~
+E +E H A +Q +E +Q. Q A +E +E
 
 |-(15)-(15)r\---------15b17==(15)--|-(15)-(15)r\---------15b17==(15)-(15)-||
 |----------------------------------|--------------------------------------||
 |----------------------------------|--------------------------------------||
 |----------------------------------|--------------------------------------||
 |----------------------------------|--------------------------------------||
 |----------------------------------|--------------------------------------||

Free Time
Q [C5] E [A5] E +H
| | | |
[/] [/] [/] [/]  
 
 |---3---|

+Q E +E +E E E S S S S
 
 |-(15)r--15b17==(15)-(15)r-15p12-15p12--------|
 |--------------------------------------16p15--|
 |---------------------------------------------|
 |---------------------------------------------|
 |---------------------------------------------|
 |---------------------------------------------|

+W +W +H E E Q
| | | | |
[/] [/] [/] [/] [/] 
S S S S S S S S S S S S E E Q Q Q Q Q Q E E Q
 
 |-12----------------------------------------|---------------|---------------*|
 |----16p15p13-15p13-------------------------|---------------|---------------*|
 |-------------------14s12-------------------|---------------|----------2----*|
 |-------------------------14p12-------12----|---------------|----------2----*|
 |-------------------------------15p12----15s|=12s=10s=9s=7s=|==5s=3p=0-0----*|
 |-------------------------------------------|---------------|---------------*|

Duration Legend
 
 ---------------
 W - whole; H - half; Q - quarter; E - 8th; S - 16th; T - 32nd; X - 64th; a - acciaccatura

+ - note tied to previous; . - note dotted; .. - note double dotted
Uncapitalized letters represent notes that are staccato (1/2 duration)
Irregular groupings are notated above the duration line
Duration letters will always appear directly above the note/fret number it represents the
duration for. Duration letters with no fret number below them represent rests. Multi-
bar rests are notated in the form Wxn, where n is the number of bars to rest for. Low
melody durations appear below the staff
Tablature Legend
 
 ----------------

h - hammer-on
p - pull-off
b - bend
pb - pre-bend
r - bend release (if no number after the r, then release immediately)
/\ - slide into or out of (from/to "nowhere")
s - legato slide
S - shift slide
- natural harmonic
[n] - artificial/pinch harmonic
n(n) - tapped harmonic
~ - vibrato
tr - trill
T - tap
TP - trem. picking
PM - palm muting
\n/ - tremolo bar dip; n = amount to dip
\n - tremolo bar down
n/ - tremolo bar up
/n\ - tremolo bar inverted dip
= - hold bend; also acts as connecting device for hammers/pulls
- volume swell (louder/softer)
x - on rhythm slash represents muted slash
o - on rhythm slash represents single note slash
Misc Legend
 
 -----------

| - bar
|| - double bar
||o - repeat start
o|| - repeat end
*| - double bar (ending)
: - bar (freetime)
$ - Segno
& - Coda
Tempo markers - = BPM(8/16=s8/s16), where s8 = swing 8ths, s16 = swing 16ths
***************************************************************************************
* Generated using Power Tab Editor by Brad Larsen - http://powertab.guitarnetwork.org *
***************************************************************************************

Important: The song above is NOT stored on the Chordie server. The original song is hosted at www.guitartabs.cc. Chordie works as a search engine and provides on-the-fly formatting. Chordie does not index songs against artists'/composers' will. To remove this song please click here.

Text color:
Chord color:
Chord grids: 
Font size:    
Page size: 

A A5 Am/C B B5 C5 C5/B D5 E G5
Rate #1 of 3 versions

Login - add to songbook

SHARE PAGE  



You need to log in to post comments