Guitar Tabs, Chords and Lyrics
Server problems seems to be fixed. Chordie has been experiencing problems with songs disappearing. These issues now seems to be fixed, but still verifying the fix. If you find anything strange, please email admin@chordie.com.


Flick of the Switch  AC/DC

AC/DC-Flick Of The Switch
Flick Of The Switch (1983)
Transcribed by: playinbass1432
Email: playinbass1432@hotmail.com
Standard Tuning
Intro:
[A] [C] [D] [A] [C] [D]  
 
 G|-----------------|-----------------|-----------------|-----------------|
 D|-----------------|-----------------|-----------------|-----------------|
 A|-----------------|-------------5---|-----------------|-------------5---|
 E|-----------------|-5-----8---------|-----------------|-5-----8---------|
 G|-----------------|-----------------|
 D|-----------------|-----------------|
 A|-----------------|-----------------|
 E|-----------------|-----------------|

Pre Verse 1:
[A]  
 
 G|-----------------|-----------------|-----------------|-----------------|
 D|-----------------|-----------------|-----------------|-----------------|
 A|-----------------|-----------------|-----------------|-----------------|
 E|-5-5-5-5-5-5-5-5-|-5-5-5-5-5-5-5-5-|-5-5-5-5-5-5-5-5-|-5-5-5-5-5-5-5-5-|

[A] [A] [C] [D] [F]  
 
 G|-----------------|-----------------|-----------------|-----------------|
 D|-----------------|-----------------|-----------------|-----------------|
 A|-----------------|-----------------|-------------5---|-----------2-3-2-|
 E|-5-5-5-5-5-5-5-5-|-5-5-5-5-5-5-5-5-|-5-----8---------|---1-2-3-4-------|

Verse 1:
[A]  
 
 G|-----------------|-----------------|-----------------|-----------------|
 D|-----------------|-----------------|-----------------|-----------------|
 A|-----------------|-----------------|-----------------|-----------------|
 E|-5-5-5-5-5-5-5-5-|-5-5-5-5-5-5-5-5-|-5-5-5-5-5-5-5-5-|-5-5-5-5-5-5-5-5-|

[A] [A] [C] [D] [A] [C] [D]  
 
 G|-----------------|-----------------|-----------------|-----------------|
 D|-----------------|-----------------|-----------------|-----------------|
 A|-----------------|-----------------|-------------5---|---------------5-|
 E|-5-5-5-5-5-5-5-5-|-5-5-5-5-5-5-5-5-|-5-----8---------|-----------5-8---|

[A] [C] [D] [A] [C] [D] [A] [C] [D] [A] [C] [D]  
 
 G|-----------------|-----------------|
 D|-----------------|-----------------|
 A|------/5-------5-|-------5-------5-|
 E|---5-8-----5-8---|---5-8-----5-8---|

Chorus 1:
[A] [D] [A] [D] [G] [D]  
 
 G|-----------------|-----------------|-----------------|-----------------|
 D|-----------------|-----------------|-----------------|-----5-----------|
 A|---------------5-|-5-5-5-5-5-5-5-5-|---------------5-|---5-----5---5---|
 E|-5-5-5-5-5-5-5---|-----------------|-5-5-5-5-5-5-5---|---------------5-|

[A] [D] [A] [D] [G] [D] [D]  
 
 G|-----------------|-----------------|-----------------|-----------------|
 D|-----------------|-----------------|-----------------|-----------------|
 A|---------------5-|-5-5-5-5-5-5-5-5-|---------------5-|---5-----5-----5-|
 E|-5-5-5-5-5-5-5---|-----------------|-5-5-5-5-5-5-5---|-----3-----------|

[G] [D]  
 
 G|-----------------|
 D|-----5-----------|
 A|---5-----5-------|
 E|-----------------|

Pre Verse 2:
[A] [A] [C] [D] [F]  
 
 G|-----------------|-----------------|-----------------|-----------------|
 D|-----------------|-----------------|-----------------|-----------------|
 A|-----------------|-----------------|-------------5---|-----------2-3-2-|
 E|-5-5-5-5-5-5-5-5-|-5-5-5-5-5-5-5-5-|-5-5---8---5-----|---1-2-3-4-------|

Verse 2:
[A]  
 
 G|-----------------|-----------------|-----------------|-----------------|
 D|-----------------|-----------------|-----------------|-----------------|
 A|-----------------|-----------------|-----------------|-----------------|
 E|-5-5-5-5-5-5-5-5-|-5-5-5-5-5-5-5-5-|-5-5-5-5-5-5-5-5-|-5-5-5-5-5-5-5-5-|

[A] [A] [C] [D] [A] [C] [D]  
 
 G|-----------------|-----------------|-----------------|-----------------|
 D|-----------------|-----------------|-----------------|-----------------|
 A|-----------------|-----------------|-------------5---|---------------5-|
 E|-5-5-5-5-5-5-5-5-|-5-5-5-5-5-5-5-5-|-5-----8---------|-----------5-8---|

[A] [C] [D] [A] [C] [D] [A] [C] [D] [A]  
 
 G|-----------------|-----------------|
 D|-----------------|-----------------|
 A|-------5-------5-|-------5---------|
 E|---5-8-----5-8---|---5-8-----5-8-5-|

Chorus 2:
[A] [D] [A] [D] [G] [D]  
 
 G|-----------------|-----------------|-----------------|-----------------|
 D|-----------------|-----------------|-----------------|-----------------|
 A|---------------5-|-5-5-5-5-5-5-5-5-|---------------5-|---5-----5---5---|
 E|-8-5-5-5-5-5-5---|-----------------|-5-5-5-5-5-5-5---|-----3---------5-|

[A] [D] [A] [D] [G] [D] [D]  
 
 G|-----------------|-----------------|-----------------|-----------------|
 D|-----------------|-----------------|-----------------|-----5-----------|
 A|---------------5-|-5-5-5-5-5-5-5-5-|---------------5-|---5-----5-----5-|
 E|-5-5-5-5-5-5-5---|-----------------|-5-5-5-5-5-5-5---|-----------------|

[G] [D] [D] [G] [D] [D] [G] [D]  
 
 G|-----------------|-----------------|-----------------|
 D|-----5-----------|-----5-----------|-----5-----------|
 A|---5-----5-----5-|---5-----5-----5-|---5-----5-------|
 E|-----------------|-----------------|-----------2-3-4-|

Guitar Solo:
[A] [F] [A] [F]  
 
 G|-----------------|-----------------|-----------------|-----------------|
 D|-----------------|-----------------|-----------------|-----------------|
 A|-----------------|-----------2-3-2-|-----------------|-----------2-3-2-|
 E|-5-5-5-5-5-5-5-5-|-5-1-2-3-4-------|-5-5-5-5-5-5-5-5-|-5-1-2-3-4-------|

[A] [F] [A] [F]  
 
 G|-----------------|-----------------|-----------------|-----------------|
 D|-----------------|-----------------|-----------------|-----------------|
 A|-----------------|-----------2-3-2-|-------------5---|-----------2-3-2-|
 E|-5-5-5-5-5-5-5-5-|-5-1-2-3-4-------|-5-5---8---------|---1-2-3-4-------| 

[A] [C] [D] [F] [A] [C] [D] [F]  
 
 G|-----------------|-----------------|-----------------|-----------------|
 D|-----------------|-----------------|-----------------|-----------------|
 A|-------------5---|-----------2-3-2-|-------------5---|-----------2-3-2-|
 E|-5----8----------|---1-2-3-4-------|-5-----8---------|---1-2-3-4-------| 

[A] [C] [D] [F] [A] [C] [D] [A] [C] [D]  
 
 G|-----------------|-----------------|-----------------|-----------------|
 D|-----------------|-----------------|-----------------|-----------------|
 A|-------------5---|-----------2-3-2-|-------------5---|---------------5-|
 E|-5----8----------|---1-2-3-4-------|-5-----8---------|-----------5-8---|

[A] [C] [D] [A] [C] [D] [A] [C] [D] [A]  
 
 G|-----------------|-----------------|
 D|-----------------|-----------------|
 A|-------5-------5-|-------5---------|
 E|---5-8-----5-8---|---5-8-----5-8-5-|

Chorus 3:
[A] [D] [A] [D] [G] [D]  
 
 G|-----------------|-----------------|-----------------|-----------------|
 D|-----------------|-----------------|-----------------|-----------------|
 A|---------------5-|-5-5-5-5-5-5-5-5-|---------------5-|---5-----5---5---|
 E|-5-5-5-5-5-5-5---|-----------------|-5-5-5-5-5-5-5---|-----3---------5-|

[A] [D] [A] [D] [G] [D]  
 
 G|-----------------|-----------------|-----------------|-----------------|
 D|-----------------|-----------------|-----------------|-----5-----------|
 A|---------------5-|-5-5-5-5-5-5-5-5-|---------------5-|---5-----5---3-2-|
 E|-5-5-5-5-5-5-5---|-----------------|-5-5-5-5-5-5-5---|-----------------|

[A] [D] [A] [D] [G] [D]  
 
 G|-----------------|-----------------|-----------------|-----------------|
 D|-----------------|-----------------|-----------------|-----5-----------|
 A|---------------5-|-5-5-5-5-5-5-5-5-|---------------5-|---5-----5-------|
 E|-5-5-5-5-5-5-5---|-----------------|-5-5-5-5-5-5-5---|-----------------|

[A] [D] [A] [D] [G] [D] [D]  
 
 G|-----------------|-----------------|-----------------|-----------------|
 D|-----------------|-----------------|-----------------|-----------------|
 A|---------------5-|-5-5-5-5-5-5-5-5-|---------------5-|---5-----5-----5-|
 E|-5-5-5-5-5-5-5---|-----------------|-5-5-5-5-5-5-5---|-----3-----------|

[G] [D] [D] [G] [D] [D] [G] [D]  
 
 G|-----------------|-----------------|-----------------|-----------------|
 D|-----5-----------|-----5-----------|-----5-----------|-----------------|
 A|---5-----5-----5-|---5-----5-----5-|---5-----5-------|-----------------|
 E|-----------------|-----------------|-----------------|-----------------|

Half Speed:
[A] [C] [D]  
 
 G|-----------------|-----------------|-----------------|-----------------|
 D|-----------------|-----------------|-----------------|-----------------|
 A|-------------5---|-----------------|-----------------|-----------------|
 E|-5-----8---------|-----------------|-----------------|-----------------|
 G|-----------------|
 D|-----------------|
 A|-----------------|
 E|---------------5-|


Important: The song above is NOT stored on the Chordie server. The original song is hosted at www.guitartabs.cc. Chordie works as a search engine and provides on-the-fly formatting. Chordie does not index songs against artists'/composers' will. To remove this song please click here.

Text color:
Chord color:
Chord grids: 
Font size:    
Page size: 

A C D F G
Rate #1 of 7 versions

Login - add to songbook

SHARE PAGE  



You need to log in to post comments