Guitar Tabs, Chords and Lyrics
Major upgrade!! After one year development the new version of Chordie is now online! Please give feedback.


Guns for Hire  AC/DC

AC/DC-Guns For Hire
Flick of the Switch (1983)
Transcribed by: playinbass1432
Email: playinbass1432@hotmail.com
Standard Tuning
Intro: (0:16)
[E] [G] [F#]  
 
 G|-----------------|-----------------|-----------------|-----------------|
 D|-----------------|-----------------|-----------------|-----------------|
 A|-----------------|-----------------|-----------------|-----------------|
 E|-0-0-0-0-0-0-0-0-|-0-0-0-0-0-0-0-0-|-0-0-0-0-0-0-0-0-|-0-0-0-0-3---2---|

[E] [D] [E] [D] [Db] [A] [B] [G] [F#]  
 
 G|-----------------|-----------------|-----------------|-----------------|
 D|-----------------|-----------------|-----------------|-----------------|
 A|-----------------|-----------------|-5-7-----5-5-4---|---2-------------|
 E|-0-0-0-0-0-0-0-0-|-0-0-0-0-0-0-0-0-|---------------5-|---------3---2---|

Verse 1:
[A] [G] [D] [G] [D]  
 
 G|-----------------|-----------------|-----------------|-----------------|
 D|-----------------|-----------------|-----------------|-5-----5-5-------|
 A|-----------------|-----------------|-------------4-7-|---5-------5-----|
 E|-5-5-5-5-5-5-5-5-|-5-5-5-5-5-5-5-5-|-5-5-5-5-5-5-----|-----------------|

[A]  
 
 G|-----------------|-----------------|-----------------|-----------------|
 D|-----------------|-----------------|-----------------|-----------------|
 A|-----------------|-----------------|-----------------|---5-------5-----|
 E|-5-5-5-5-5-5-5-5-|-5-5-5-5-5-5-5-5-|-5-5-5-5-5-5-5-5-|-3-----3-------3-|

[A] [G] [D] [G] [D]  
 
 G|-----------------|-----------------|-----------------|-----------------|
 D|-----------------|-----------------|-----------------|-5-----5-5-------|
 A|-----------------|-----------------|-------------4-7-|---5-------5-----|
 E|-5-5-5-5-5-5-5-5-|-5-5-5-5-5-5-5-5-|-5-5-5-5-5-5-----|-----------------|

[A] [G] [F#] [E] [D] [Db]  
 
 G|-----------------|-----------------|-----------------|-----------------|
 D|-----------------|-----------------|---------------4-|-5-4---2---------|
 A|-----------------|-----------------|-----------4-7---|-----------5---4-|
 E|-5-5-5-5-5-5-5-5-|-5-5-5-5-5-5-5-5-|-5-5-5-5-5-------|-----------------|

Chorus 1:
[E] [G] [F#]  
 
 G|-----------------|-----------------|-----------------|-----------------|
 D|-----------------|-----------------|-----------------|-----------------|
 A|-----------------|-----------------|-----------------|-----------------|
 E|-0-0-0-0-0-0-0-0-|-0-0-0-0-0-0-0-0-|-0-0-0-0-0-0-0-0-|-0-0-0-0-3---2---|

[E] [G] [F#]  
 
 G|-----------------|-----------------|-----------------|-----------------|
 D|-----------------|-----------------|-----------------|-----------------|
 A|-----------------|-----------------|-----------------|-----------------|
 E|-0-0-0-0-0-0-0-0-|-0-0-0-0-0-0-0-0-|-0-0-0-0-0-0-0-0-|-0-0-0-0-3---2---|

Verse 2:
[A] [G] [D] [G] [D]  
 
 G|-----------------|-----------------|-----------------|-----------------|
 D|-----------------|-----------------|-----------------|-----------------|
 A|-----------------|-----------------|-----------------|---5-------5-----|
 E|-5-5-5-5-5-5-5-5-|-5-5-5-5-5-5-5-5-|-5-5-5-5-5-5-5-5-|-3-----3-------3-|

[A] [G] [F#] [G] [F#]  
 
 G|-----------------|-----------------|-----------------|-----------------|
 D|-----------------|-----------------|-----------------|-----------------|
 A|-----------------|-----------------|-----------------|-----------------|
 E|-5-5-5-5-5-5-5-5-|-5-5-5-5-5-5-5-5-|-5-5-5-5-5-5-5-5-|-3-2---3---2-----|

Chorus 2/Pre Solo:
[E] [G] [F#]  
 
 G|-----------------|-----------------|-----------------|-----------------|
 D|-----------------|-----------------|-----------------|-----------------|
 A|-----------------|-----------------|-----------------|-----------------|
 E|-0-0-0-0-0-0-0-0-|-0-0-0-0-0-0-0-0-|-0-0-0-0-0-0-0-0-|-0-0-0-0-3---2---|

[E] [A] [B] [G]  
 
 G|-----------------|-----------------|-----------------|-----------------|
 D|-----------------|-----------------|-----------------|-----------------|
 A|-----------------|-----------------|-----------------|-----------------|
 E|-0-0-0-0-0-0-0-0-|-0-0-0-0-0-0-0-0-|-0-0-0-0-0-0-0-5-|---7-7-7-7-7-7-3-|

( Tab from: http://www.guitartabs.cc/tabs/a/ac_dc/guns_for_hire_btab.html )
[A] [G] [A] [G]  
 
 G|-----------------|-----------------|-----------------|-----------------|
 D|-----------------|-----------------|-----------------|-----------------|
 A|-----------------|--5--------------|-----------------|--5--------------|
 E|---5-5-5-5-5-5-3-|---5-5-5-5-5-5-3-|---5-5-5-5-5-5-3-|---5-5-5-5-5-2-3-|

Guitar Solo:
[D] [E] [D] [Db] [A] [B] [G] [F#] [D] [E] [D] [Db] [A] [B] [G] [F#]  
 
 G|-----------------|-----------------|-----------------|-----------------|
 D|-----------------|-----------------|-----------------|-----------------|
 A|-5-7-----5-5-4---|---2-------------|-5-7-----5-5-4---|---2-------------|
 E|---------------5-|---------3---2---|---------------5-|---------3---2---|

[D] [E] [D] [Db] [A] [B] [G] [F#] [D] [E] [D] [Db] [A] [B] [G] [F#]  
 
 G|-----------------|-----------------|-----------------|-----------------|
 D|-----------------|-----------------|-----------------|-----------------|
 A|-5-7-----5-5-4---|---2-------------|-5-7-----5-5-4---|---2-------------|
 E|---------------5-|---------3---2---|---------------5-|---------3---2---|

[D] [E] [D] [Db] [A] [B] [G] [F#] [D] [E] [D] [Db] [A] [B] [G] [F#]  
 
 G|-----------------|-----------------|-----------------|-----------------|
 D|-----------------|---------5-------|-----------------|-----------------|
 A|-5-7-----5-5-4---|---2-------------|-5-7-----5-5-4---|---2-------------|
 E|---------------5-|-------------2---|---------------5-|---------3---2---|

[D] [E] [D] [Db] [A] [B] [G] [F#] [D] [E] [D] [Db] [A] [B] [G] [F#]  
 
 G|-----------------|-----------------|-----------------|-----------------|
 D|-----------------|-----------------|-----------------|-----------------|
 A|-5-7-----5-5-4---|---2-------------|-5-7-----5-5-4---|---2-------------|
 E|---------------5-|---------3---2---|---------------5-|---------3---2---|

Verse 3:
[A] [G] [F#] [G] [F#]  
 
 G|-----------------|-----------------|-----------------|-----------------|
 D|-----------------|-----------------|-----------------|-5-4---5---4-----|
 A|-----------------|-----------------|-------------4-7-|-----------------|
 E|-5-5-5-5-5-5-5-5-|-5-5-5-5-5-3-4-5-|-5-5-5-5-5-5-----|-----------------|

[A] [G] [F#] [E] [D] [Db]  
 
 G|-----------------|-----------------|-----------------|-----------------|
 D|-----------------|-----------------|---------------4-|-5-4---2---------|
 A|-----------------|-----------------|-----------4-7---|-----------5---4-|
 E|-5-5-5-5-5-5-5-5-|-5-5-5-5-5-5-5-5-|-5-5-5-5-5-------|-----------------|

Chorus 3:
[E] [G] [F#] [G] [F#]  
 
 G|-----------------|-----------------|-----------------|-----------------|
 D|-----------------|-----------------|-----------------|-----------------|
 A|-----------------|-----------------|-----------------|-----------------|
 E|-0-0-0-0-0-0-0-0-|-0-0-0-0-3---2---|-0-0-0-0-0-0-0-0-|-0-0-0-0-3---2---|

[E] [G] [F#]  
 
 G|-----------------|-----------------|-----------------|-----------------|
 D|-----------------|-----------------|-----------------|-----------------|
 A|-----------------|-----------------|-----------------|-----------------|
 E|-0-0-0-0-0-0-0-0-|-0-0-0-0-0-0-0-0-|-0-0-0-0-0-0-0-0-|-0-0-0-0-3---2---|

[E] [G] [F#]  
 
 G|-----------------|-----------------|-----------------|-----------------|
 D|-----------------|-----------------|-----------------|-----------------|
 A|-----------------|-----------------|-----------------|-----------------|
 E|-0-0-0-0-0-0-0-0-|-0-0-0-0-0-0-0-0-|-0-0-0-0-0-0-0-0-|-0-0-0-0-3---2---|

[E] [D] [E] [D] [A] [B]  
 
 G|-----------------|-----------------|-----------------|-----------------|
 D|-----------------|-----------------|-----------------|-----------------|
 A|-----------------|-----------------|-5-7-7-7-5-5-4---|-----------------|
 E|-0-0-0-0-0-0-0-0-|-0-0-0-0-0-0-0-0-|---------------5-|---7-7-7-7-7-7-5-|

[B] [A] [B] [G] [A] [G] [D] [A]  
 
 G|-----------------|-----------------|-----------------|-----------------|
 D|-----------------|-----------------|-----------------|-----------------|
 A|-----------------|-----------------|-----------------|-----5-----------|
 E|---7-7-7-7-7-7-5-|---7-7-7-7-7-7-3-|---5-------------|-3--------5------|
 G|-----------------|-----------------|
 D|-----------------|-----------------|
 A|-----------------|-----------------|
 E|-----------------|-----------------|


Important: The song above is NOT stored on the Chordie server. The original song is hosted at www.guitartabs.cc. Chordie works as a search engine and provides on-the-fly formatting. Chordie does not index songs against artists'/composers' will. To remove this song please click here.

Text color:
Chord color:
Chord grids: 
Font size:    
Page size: 

A B D Db E F# G
Rate #1 of 4 versions

Jango Player

Login - add to songbook

SHARE PAGE  




You need to log in to post comments