Guitar Tabs, Chords and Lyrics
Major upgrade!! After one year development the new version of Chordie is now online! Please give feedback.


Hail Caesar  AC/DC

AC/DC-Hail Caesar
Ballbreaker (1995)
Transcribed by: playinbass1432
Email: playinbass1432@hotmail.com
Standard Tuning
Intro: (Fade In)
[E]  
 
 G|-----------------|-----------------|-----------------|-----------------|
 D|-----------------|-----------------|-----------------|-----------------|
 A|-----------------|-----------------|-----------------|-----------------|
 E|-0-0-0-0-0-0-0-0-|-0-0-0-0-0-0-0-0-|-0-0-0-0-0-0-0-0-|-0-0-0-0-0-0-0-0-|

[E]  
 
 G|-----------------|-----------------|-----------------|-----------------|
 D|-----------------|-----------------|-----------------|-----------------|
 A|-----------------|-----------------|-----------------|-----------------|
 E|-0-0-0-0-0-0-0-0-|-0-0-0-0-0-0-0-0-|-0-0-0-0-0-0-0-0-|-0-0-0-0-0-0-0-0-|

[E]  
 
 G|-----------------|-----------------|-----------------|-----------------|
 D|-----------------|-----------------|-----------------|-----------------|
 A|-----------------|-----------------|-----------------|-----------------|
 E|-0-0-0-0-0-0-0-0-|-0-0-0-0-0-0-0-0-|-0-0-0-0-0-0-0-0-|-0-0-0-0-0-3-5-3-|

Verse 1:
[E] [E] [G] [A] [G] [E] [E] [G] [A] [G]  
 
 G|-----------------|-----------------|-----------------|-----------------|
 D|-----------------|-----------------|-----------------|-----------------|
 A|-----------------|-----------------|-----------------|-----------------|
 E|-0---------------|-------0---3-5-3-|-0---------------|-------0---3-5-3-|

[E] [E] [G] [A] [G] [E] [F#] [A] [B] [A]  
 
 G|-----------------|-----------------|-----------------|-----------------|
 D|-----------------|-----------------|-----------------|-----------------|
 A|-----------------|-----------------|-----------------|-----------0-2-0-|
 E|-0---------------|-------0---3-5-3-|-0---------------|-------2---------|

[F#] [F#] [A] [B] [A] [F#] [A] [C] [D] [A] [C] [A] [C] [A] [C] [D] [F#] [A] [B] [A]  
 
 G|-----------------|-----------------|-----------------|-----------------|
 D|-----------------|-----------------|-----------------|-----------------|
 A|-----------0-2-0-|-----------3-5---|-3-------3-----3-|---5-------0-2-0-|
 E|-2-----2---------|-2-----5-------5-|---5-5-5---5-----|-------2---------|

[F#] [F#] [A] [B] [A] [F#] [B] [D] [B] [D] [B] [D] [B] [D]  
 
 G|-----------------|-----------------|-----------------|-----------------|
 D|-----------------|-----------------|-----------------|-----------------|
 A|-----------0-2-0-|---------5-------|-5-------5-----5-|-----------------|
 E|-2-----2---------|-2-----7---7-7-7-|---7-7-7---7-7---|-----------------|

Chorus 1:
[E]  
 
 G|-----------------|-----------------|-----------------|-----------------|
 D|-----------------|-----------------|-----------------|-----------------|
 A|-----------------|-----------------|-----------------|-----------------|
 E|-0-0-0-0-0-0-0-0-|-0-0-0-0-0-0-0-0-|-0-0-0-0-0-0-0-0-|-0-0-0-0-0-0-0-0-|

[E] [G] [A] [F#] [A] [B] [A]  
 
 G|-----------------|-----------------|-----------------|-----------------|
 D|-----------------|-----------------|-----------------|-----------------|
 A|-----------------|-----------------|-----------------|-----------0-2-0-|
 E|-0-0-0-0-0-0-0-0-|-0-0-0-0-0-0-0-0-|-0-0-0-0-0-0-0-3-|---5---2---------|

Verse 2:
[F#] [F#] [A] [B] [A] [F#] [F#] [A] [B] [A]  
 
 G|-----------------|-----------------|-----------------|-----------------|
 D|-----------------|-----------------|-----------------|-----------------|
 A|-----------------|-----------0-2-0-|-----------------|-----------0-2-0-|
 E|-2---------------|-------2---------|-2---------------|-------2---------|

[F#] [F#] [A] [B] [A] [F#] [A] [C] [D] [C]  
 
 G|-----------------|-----------------|-----------------|-----------------|
 D|-----------------|-----------------|-----------------|-----------------|
 A|-----------------|-----------0-2-0-|-----------------|-----------3-5-3-|
 E|-2---------------|-------2---------|-2---------------|-------5---------|

[A] [A] [C] [D] [C] [A] [A] [C] [D] [A] [C] [A] [C] [A] [C] [D] [A] [C] [D] [C]  
 
 G|-----------------|-----------------|-----------------|-----------------|
 D|-----------------|-----------------|-----------------|-----------------|
 A|-----------3-5-3-|-----------3-5---|-3-------3-----3-|---5-------3-5-3-|
 E|-5-----5---------|-5-----5-------5-|---5-5-5---5-----|-------5---------|

[A] [A] [C] [D] [C] [A] [B] [D] [B] [D] [B] [D] [B] [D]  
 
 G|-----------------|-----------------|-----------------|-----------------|
 D|-----------------|-----------------|-----------------|-----------------|
 A|-----------3-5-3-|---------5-------|-5-------5-----5-|-----------------|
 E|-5-----5---------|-5-----7---7-7-7-|---7-7-7---7-7---|-----------------|

Chorus 2:
[E]  
 
 G|-----------------|-----------------|-----------------|-----------------|
 D|-----------------|-----------------|-----------------|-----------------|
 A|-----------------|-----------------|-----------------|-----------------|
 E|-0-0-0-0-0-0-0-0-|-0-0-0-0-0-0-0-0-|-0-0-0-0-0-0-0-0-|-0-0-0-0-0-0-0-0-|

[E] [G] [A]  
 
 G|-----------------|-----------------|-----------------|-----------------|
 D|-----------------|-----------------|-----------------|-----------------|
 A|-----------------|-----------------|-----------------|-----------------|
 E|-0-0-0-0-0-0-0-0-|-0-0-0-0-0-0-0-0-|-0-0-0-0-0-0-0-0-|-0-0-0-3---5-----|

Bridge:
[E] [D] [Bb] [A] [G] [E]  
 
 G|-----------------|-----------------|-----------------|-----------------|
 D|-----------------|-----------------|-----------------|-----------------|
 A|-----------------|-5---------------|-----------------|-----------------|
 E|-0---------------|---6-5-3---0-----|-----------------|-----------------|

Guitar Solo:
[D] [Bb] [A] [G] [E] [D] [Bb] [A] [G] [E] [D] [Bb] [A] [G] [E] [D] [Bb] [A] [G] [E]  
 
 G|-----------------|-----------------|-----------------|-----------------|
 D|-----------------|-----------------|-----------------|-----------------|
 A|-5---------------|-5---------------|-5---------------|-5---------------|
 E|-----6-5-3-0-0-0-|---6-5-3---0-0-0-|-----6-5-3-0-0-0-|---6-5-3---0-0-0-|

[D] [Bb] [A] [G] [E] [D] [Bb] [A] [G] [E] [D] [Bb] [A] [G] [E] [D] [Bb] [A] [G] [E]  
 
 G|-----------------|-----------------|-----------------|-----------------|
 D|-----------------|-----------------|-----------------|-----------------|
 A|-5---------------|-5---------------|-5---------------|-5---------------|
 E|-----6-5-3-0-0-0-|---6-5-3---0-0-0-|-----6-5-3-0-0-0-|---6-5-3---0-0-0-|

[G] [Eb] [D] [C] [A] [C] [A] [C] [A] [G] [Db] [D] [C] [A] [C] [A] [C] [A]  
 
 G|-----------------|-----------------|-----------------|-----------------|
 D|-----------------|-----------------|-----------------|-----------------|
 A|-----6-5-3-------|-----------------|-----6-5-3-------|-----------------|
 E|-3---------5-5-5-|-8-5-5-8-5-5-5-5-|-3---------5-5-5-|-8-5-5-8-5-5-5-5-|

[G] [Eb] [D] [C] [A] [C] [A] [C] [A] [G] [Db] [D] [C] [A] [C] [A] [C] [A]  
 
 G|-----------------|-----------------|-----------------|-----------------|
 D|-----------------|-----------------|-----------------|-----------------|
 A|-----6-5-3-------|-----------------|-----6-5-3-------|-----------------|
 E|-3---------5-5-5-|-8-5-5-8-5-5-5-5-|-3---------5-5-5-|-8-5-5-8-5-5-5-5-|

[D] [Bb] [A] [G] [E] [D] [Bb] [A] [G] [E] [D] [Bb] [A] [G] [E] [D] [Bb] [A] [G] [E]  
 
 G|-----------------|-----------------|-----------------|-----------------|
 D|-----------------|-----------------|-----------------|-----------------|
 A|-5---------------|-5---------------|-5---------------|-5---------------|
 E|-----6-5-3-0-0-0-|---6-5-3---0-0-0-|-----6-5-3-0-0-0-|---6-5-3---0-0-0-|

( Tab from: http://www.guitartabs.cc/tabs/a/ac_dc/hail_caesar_btab.html )
[D] [Bb] [A] [G] [E] [D] [Bb] [A] [G] [E] [E] [D] [Bb] [A] [G] [E]  
 
 G|-----------------|-----------------|-----------------|-----------------|
 D|-----------------|-----------------|-----------------|-----------------|
 A|-5---------------|-5---------------|-----------------|-5---------------|
 E|---6-5-3---0-0-0-|---6-5-3---0-----|-0---------------|---6-5-3---0-----|

[D] [Bb] [A] [G] [E] [G] [E] [G] [E] [G] [E]  
 
 G|-----------------|-----------------|-----------------|-----------------|
 D|-----------------|-----------------|-----------------|-----------------|
 A|-----------------|-5---------------|-----------------|-----------------|
 E|-----------------|-------6-5-3-0---|-3-0-----3-0-----|-3-0-------------|

Bass Solo (Verse 3):
[G] [E] [G] [E] [G] [E] [G] [E] [A] [E] [G] [E] [G] [E] [G] [E] [G] [E] [A] [E]  
 
 G|-----------------|-----------------|-----------------|-----------------|
 D|-----------------|-----------------|-----------------|-----------------|
 A|-----------------|-----------------|-----------------|-----------------|
 E|-3-0-0-0-3-0-0-0-|-3-0-0-3-0-5-0-0-|-3-0-0-0-3-0-0-0-|-3-0-0-3-0-5-0-0-|

[G] [E] [G] [E] [G] [E] [G] [E] [A] [E] [G] [E] [G] [E] [G] [E] [G] [E] [A] [E]  
 
 G|-----------------|-----------------|-----------------|-----------------|
 D|-----------------|-----------------|-----------------|-----------------|
 A|-----------------|-----------------|-----------------|-----------------|
 E|-3-0-0-0-3-0-0-0-|-3-0-0-3-0-5-0-0-|-3-0-0-0-3-0-0-0-|-3-0-0-3-0-5-0-0-|

[G] [E] [G] [E] [G] [E] [G] [E] [A] [E] [G] [E] [G] [E] [G] [E] [G] [E] [A] [E]  
 
 G|-----------------|-----------------|-----------------|-----------------|
 D|-----------------|-----------------|-----------------|-----------------|
 A|-----------------|-----------------|-----------------|-----------------|
 E|-3-0-0-0-3-0-0-0-|-3-0-0-3-0-5-0-0-|-3-0-0-0-3-0-0-0-|-3-0-0-3-0-5-0-0-|

[G] [E] [G] [E] [G] [E] [G] [E] [A] [E] [G] [E] [G] [E] [G] [E] [G] [E] [A] [E]  
 
 G|-----------------|-----------------|-----------------|-----------------|
 D|-----------------|-----------------|-----------------|-----------------|
 A|-----------------|-----------------|-----------------|-----------------|
 E|-3-0-0-0-3-0-0-0-|-3-0-0-3-0-5-0-0-|-3-0-0-0-3-0-0-0-|-3-0-0-3-0-5-0-0-|

[G] [E] [G] [E] [G] [E] [G] [E] [A] [E] [G] [E] [G] [E] [G] [E] [G] [E] [A] [E]  
 
 G|-----------------|-----------------|-----------------|-----------------|
 D|-----------------|-----------------|-----------------|-----------------|
 A|-----------------|-----------------|-----------------|-----------------|
 E|-3-0-0-0-3-0-0-0-|-3-0-0-3-0-5-0-0-|-3-0-0-0-3-0-0-0-|-3-0-0-3-0-5-0-0-|

[G] [E] [G] [E] [G] [G] [A] [G] [E] [G] [E] [G] [E] [D] [Bb] [A] [G] [E]  
 
 G|-----------------|-----------------|-----------------|-----------------|
 D|-----------------|-----------------|-----------------|-----------------|
 A|-----------------|-----------------|-----------------|-5---------------|
 E|-3-0-0-0-3-0-0-0-|-0---3-5-3-0-0-0-|-3-0-0-0-3-0-0-0-|-------6-5-3-0-0-|

[G] [E] [G] [E] [G] [G] [A] [G] [E] [G] [E] [G] [E] [D] [Bb] [A] [G] [E]  
 
 G|-----------------|-----------------|-----------------|-----------------|
 D|-----------------|-----------------|-----------------|-----------------|
 A|-----------------|-----------------|-----------------|-5---------------|
 E|-3-0-0-0-3-0-0-0-|-0---3-5-3-0-0-0-|-3-0-0-0-3-0-0-0-|-------6-5-3-0-0-|

[E] [G] [A] [G] [E] [E] [G] [A] [G] [E] [E] [G] [A] [G] [E] [E] [G] [A] [G] [E]  
 
 G|-----------------|-----------------|-----------------|-----------------|
 D|-----------------|-----------------|-----------------|-----------------|
 A|-----------------|-----------------|-----------------|-----------------|
 E|-0---3-5-3-0-0-0-|-0---3-5-3-0-0-0-|-0---3-5-3-0-0-0-|-0---3-5-3-0-0-0-|

[E] [G] [A] [G] [E] [E] [G] [A] [G] [E] [E] [G] [A] [G] [E] [G] [A] [G] [E] [G] [A] [G] [E] [G] [E]  
 
 G|-----------------|-----------------|-----------------|-----------------|
 D|-----------------|-----------------|-----------------|-----------------|
 A|-----------------|-----------------|-----------------|-----------------|
 E|-0---3-5-3-0-0-0-|-0---3-5-3-0-0-0-|-0---3-5-3-0-3-5-|-3-0-3-5-3-0-3-5-|

Pre Chorus 3:
[D] [Bb] [A] [G] [E] [D] [Bb] [A] [G] [E] [D] [Bb] [A] [G] [E] [D] [Bb] [A] [G] [E]  
 
 G|-----------------|-----------------|-----------------|-----------------|
 D|-----------------|-----------------|-----------------|-----------------|
 A|-5---------------|-5---------------|-5---------------|-5---------------|
 E|-----6-5-3-0-0-0-|---6-5-3---0-0-0-|-----6-5-3-0-0-0-|---6-5-3---0-0-0-|

[D] [Bb] [A] [G] [E] [D] [Bb] [A] [G] [E] [D] [Bb] [A] [G] [E] [D] [Bb] [A] [G] [E]  
 
 G|-----------------|-----------------|-----------------|-----------------|
 D|-----------------|-----------------|-----------------|-----------------|
 A|-5---------------|-5---------------|-5---------------|-5---------------|
 E|-----6-5-3-0-0-0-|---6-5-3---0-0-0-|-----6-5-3-0-0-0-|---6-5-3---0-0-0-|

Chorus 3:
[E] [D] [Bb] [A] [G] [E] [D] [Bb] [A] [G] [E]  
 
 G|-----------------|-----------------|-----------------|-----------------|
 D|-----------------|-----------------|-----------------|-----------------|
 A|-----------------|-----------------|-5---------------|-5---------------|
 E|-0-0-0-0-0-0-0-0-|-0-0-0-0-0-0-0-0-|-----6-5-3-0-0-0-|---6-5-3---0-0-0-|

[E] [D] [Bb] [A] [G] [E] [D] [Bb] [A] [G] [E]  
 
 G|-----------------|-----------------|-----------------|-----------------|
 D|-----------------|-----------------|-----------------|-----------------|
 A|-----------------|-----------------|-5---------------|-5---------------|
 E|-0-0-0-0-0-0-0-0-|-0-0-0-0-0-0-0-0-|-----6-5-3-0-0-0-|---6-5-3---0-0-0-|

[D] [Bb] [A] [G] [E] [D] [Bb] [A] [G] [E] [D] [Bb] [A] [G] [E] [D] [Bb] [A] [G] [E]  
 
 G|-----------------|-----------------|-----------------|-----------------|
 D|-----------------|-----------------|-----------------|-----------------|
 A|-5---------------|-5---------------|-5---------------|-5---------------|
 E|-----6-5-3-0-0-0-|---6-5-3---0-0-0-|-----6-5-3-0-0-0-|---6-5-3---0-0-0-|

[D] [Bb] [A] [G] [E] [D] [Bb] [A] [G] [E] [D] [Bb] [A] [G] [E] [D] [Bb] [A] [G]  
 
 G|-----------------|-----------------|-----------------|-----------------|
 D|-----------------|-----------------|-----------------|-----------------|
 A|-5---------------|-5---------------|-5---------------|-5---------------|
 E|-----6-5-3-0-0-0-|---6-5-3---0-0-0-|-----6-5-3-0-0-0-|---6-5-3---------|

Outro:
[G] [E] [G] [E] [G] [E] [G] [A]  
 
 G|-----------------|-----------------|-----------------|-----------------|
 D|-----------------|-----------------|-----------------|-----------------|
 A|-----------------|-----------------|-----------------|-----------------|
 E|-3-0-----3-0-----|-3-0---3---5-----|-----------------|-----------------|

(Half Speed)
[G] [E] [G] [E] [G] [E] [E]  
 
 G|-----------------|-----------------|-----------------|-----------------|
 D|-----------------|-----------------|-----------------|-----------------|
 A|-----------------|-----------------|-----------------|-----------------|
 E|-3-0-----3-0-----|-3-0---0---------|-----------------|-----------------|

[E]  
 
 G|-----------------|
 D|-----------------|
 A|-----------------|
 E|-0---------------|


Important: The song above is NOT stored on the Chordie server. The original song is hosted at www.guitartabs.cc. Chordie works as a search engine and provides on-the-fly formatting. Chordie does not index songs against artists'/composers' will. To remove this song please click here.

Text color:
Chord color:
Chord grids: 
Font size:    
Page size: 

A B Bb C D Db E Eb F# G
Rate #1 of 2 versions

Jango Player

Login - add to songbook

SHARE PAGE  



You need to log in to post comments