Guitar Tabs, Chords and Lyrics
Major upgrade!! After one year development the new version of Chordie is now online! Please give feedback.


Hell Ain't a Bad Place to Be  AC/DC

AC/DC-Hell Ain't A Bad Place To Be
Let There Be Rock (1977)
Transcribed by: playinbass1432
Email: playinbass1432@hotmail.com
Standard Tuning flatted 1/4 step
Intro: (0:04)
[A]  
 
 G|-----------------|-----------------|-----------------|-----------------|
 D|-----------------|-----------------|-----------------|-----------------|
 A|-----------------|-----------------|-----------------|-----------------|
 E|-5-5-5-5-5-5-5-5-|-5-5-5-5-5-5-5-5-|-5-5-5-5-5-5-5-5-|-5-5-5-5-5-5-5-5-|

[A]  
 
 G|-----------------|-----------------|-----------------|-----------------|
 D|-----------------|-----------------|-----------------|-----------------|
 A|-----------------|-----------------|-----------------|-----------------|
 E|-5-5-5-5-5-5-5-5-|-5-5-5-5-5-5-5-5-|-5-5-5-5-5-5-5-5-|-5-5-5-5-5-5-5-5-|

[A]  
 
 G|-----------------|-----------------|-----------------|-----------------|
 D|-----------------|-----------------|-----------------|-----------------|
 A|-----------------|-----------------|-----------------|-----------------|
 E|-5-5-5-5-5-5-5-5-|-5-5-5-5-5-5-5-5-|-5-5-5-5-5-5-5-5-|-5-5-5-5-5-5-5-5-|

[A]  
 
 G|-----------------|-----------------|-----------------|-----------------|
 D|-----------------|-----------------|-----------------|-----------------|
 A|-----------------|-----------------|-----------------|-----------------|
 E|-5-5-5-5-5-5-5-5-|-5-5-5-5-5-5-5-5-|-5-5-5-5-5-5-5-5-|-5-5-5-5-5-5-2-3/|

Pre Verse 1:
[A]  
 
 G|-----------------|-----------------|-----------------|-----------------|
 D|-----------------|-----------------|-----------------|-----------------|
 A|-----------------|-----------------|-----------------|-----------------|
 E|-5-5-5-5-5-5-5-5-|-5-5-5-5-5-5-5-5-|-5-5-5-5-5-5-5-5-|-5-5-5-5-5-5-5-5-|

[A]  
 
 G|-----------------|-----------------|-----------------|-----------------|
 D|-----------------|-----------------|-----------------|-----------------|
 A|-----------------|-----------------|-----------------|-----------------|
 E|-5-5-5-5-5-5-5-5-|-5-5-5-5-5-5-5-5-|-5-5-5-5-5-5-5-5-|-5-5-5-5-5-5-5-5-|

Verse 1:
[A]  
 
 G|-----------------|-----------------|-----------------|-----------------|
 D|-----------------|-----------------|-----------------|-----------------|
 A|-----------------|-----------------|-----------------|-----------------|
 E|-5-5-5-5-5-5-5-5-|-5-5-5-5-5-5-5-5-|-5-5-5-5-5-5-5-5-|-5-5-5-5-5-5-5-5-|

[A]  
 
 G|-----------------|-----------------|-----------------|-----------------|
 D|-----------------|-----------------|-----------------|-----------------|
 A|-----------------|-----------------|-----------------|-----------------|
 E|-5-5-5-5-5-5-5-5-|-5-5-5-5-5-5-5-5-|-5-5-5-5-5-5-5-5-|-5-5-5-5-5-5-5-5-|

[A]  
 
 G|-----------------|-----------------|-----------------|-----------------|
 D|-----------------|-----------------|-----------------|-----------------|
 A|-----------------|-----------------|-----------------|-----------------|
 E|-5-5-5-5-5-5-5-5-|-5-5-5-5-5-5-5-5-|-5-5-5-5-5-5-5-5-|-5-5-5-5-5-5-5-5-|

[A]  
 
 G|-----------------|-----------------|-----------------|-----------------|
 D|-----------------|-----------------|-----------------|-----------------|
 A|-----------------|-----------------|-----------------|-----------------|
 E|-5-5-5-5-5-5-5-5-|-5-5-5-5-5-5-5-5-|-5-5-5-5-5-5-5-5-|-5-5-5-5-5-5-5-5-|

Pre Chorus 1:
[D] [D] [D] [D]  
 
 G|-----------------|-----------------|-----------------|-----------------|
 D|-----------------|-----------------|-----------------|-----------------|
 A|-5---------------|-5-----------3---|-5---------------|-5-5-5-5---5---5-|
 E|-----------------|-----------5-----|-----------------|-----------------|

[E] [E] [E] [G]  
 
 G|-----------------|-----------------|-----------------|-----------------|
 D|-----------------|-----------------|-----------------|-----------------|
 A|-7---------------|-7---------7-5-6-|-7---------------|-----------------|
 E|-----------------|-----------------|-----------------|-3---------------|

Chorus 1:
[A]  
 
 G|-----------------|-----------------|-----------------|-----------------|
 D|-----------------|-----------------|-----------------|-----------------|
 A|-----------------|-----------------|-----------------|-----------------|
 E|-5-5-5-5-5-5-5-5-|-5-5-5-5-5-5-5-5-|-5-5-5-5-5-5-5-5-|-5-5-5-5-5-5-5-5-|

[A]  
 
 G|-----------------|-----------------|-----------------|-----------------|
 D|-----------------|-----------------|-----------------|-----------------|
 A|-----------------|-----------------|-----------------|-----------------|
 E|-5-5-5-5-5-5-5-5-|-5-5-5-5-5-5-5-5-|-5-5-5-5-5-5-5-5-|-5-5-5-5-5-5-5-5-|

Verse 2:
[A]  
 
 G|-----------------|-----------------|-----------------|-----------------|
 D|-----------------|-----------------|-----------------|-----------------|
 A|-----------------|-----------------|-----------------|-----------------|
 E|-5-5-5-5-5-5-5-5-|-5-5-5-5-5-5-5-5-|-5-5-5-5-5-5-5-5-|-5-5-5-5-5-5-5-5-|

[A]  
 
 G|-----------------|-----------------|-----------------|-----------------|
 D|-----------------|-----------------|-----------------|-----------------|
 A|-----------------|-----------------|-----------------|-----------------|
 E|-5-5-5-5-5-5-5-5-|-5-5-5-5-5-5-5-5-|-5-5-5-5-5-5-5-5-|-5-5-5-5-5-5-5-5-|

[A]  
 
 G|-----------------|-----------------|-----------------|-----------------|
 D|-----------------|-----------------|-----------------|-----------------|
 A|-----------------|-----------------|-----------------|-----------------|
 E|-5-5-5-5-5-5-5-5-|-5-5-5-5-5-5-5-5-|-5-5-5-5-5-5-5-5-|-5-5-5-5-5-5-5-5-|

[A]  
 
 G|-----------------|-----------------|-----------------|-----------------|
 D|-----------------|-----------------|-----------------|-----------------|
 A|-----------------|-----------------|-----------------|-----------------|
 E|-5-5-5-5-5-5-5-5-|-5-5-5-5-5-5-5-5-|-5-5-5-5-5-5-5-5-|-5-5-5-5-5-5-5-5-|

Pre Solo:
[D] [D] [D] [D]  
 
 G|-----------------|-----------------|-----------------|-----------------|
 D|-----------------|-----------------|-----------------|-----------------|
 A|-5---------------|-5---5---5---3---|-5---------------|-5-5-5-5---5---5-|
 E|-----------------|-----------5-----|-----------------|-----------------|

[E] [E] [E] [G]  
 
 G|-----------------|-----------------|-----------------|-----------------|
 D|-----------------|-----------------|-----------------|-5---------------|
 A|-----------------|-7---7-----x-5-6-|-7---------------|-----------------|
 E|-0---------------|-----------------|-----------------|-----------------|

Guitar Solo:
[G] [F#] [G] [F#] [G] [F#] [A] [G] [F#]  
 
 G|-----------------|-----------------|-----------------|-----------------|
 D|-5---4---5---4---|-5---4---7-7-7-7-|-7-7-7-7-7-7-7-7-|-7-7-7-7-5---4---|
 A|-----------------|-----------------|-----------------|-----------------|
 E|-----------------|-----------------|-----------------|-----------------|

[G] [F#] [G] [F#] [A] [G] [F#] [G] [F#]  
 
 G|-----------------|-----------------|-----------------|-----------------|
 D|-5---4---5---4---|-7-7-7-7-7-7-7-7-|-7-7-7-7-7-7-7-7-|-5---4---5---4---|
 A|-----------------|-----------------|-----------------|-----------------|
 E|-----------------|-----------------|-----------------|-----------------|

[G] [F#] [A] [G] [F#] [G] [F#] [G] [F#]  
 
 G|-----------------|-----------------|-----------------|-----------------|
 D|-5---4---7-7-7-7-|-7-7-7-7-7-7-7-7-|-7-7-7-7-5---4---|-5---4---5---4---|
 A|-----------------|-----------------|-----------------|-----------------|
 E|-----------------|-----------------|-----------------|-----------------|

[A] [A] [A] [A]  
 
 G|-----------------|-----------------|-----------------|-----------------|
 D|-----------------|-----------------|-----------------|-7-7-7-7---------|
 A|-----------------|-----------------|-----------------|-----------------|
 E|-5-5-5-5---------|-5-5-5-5---------|-5-5-5-5---------|-----------------|

Pre Chorus 2:
[D] [D] [D] [D]  
 
 G|-----------------|-----------------|-----------------|-----------------|
 D|-----------------|-----------------|-----------------|-----------------|
 A|-5---5---5-----3-|-5---5---5-5-3---|-5-----------3---|-5-5-5-5---5---5-|
 E|-------------5---|-----------------|-----------5-----|-----------------|

[E] [E] [E] [G]  
 
 G|-----------------|-----------------|-----------------|-----------------|
 D|-----------------|-----------------|-----------------|-----------------|
 A|-7---7-7-7-7-7-7-|-7---7-----x-5-6-|-7---------------|-----------------|
 E|-----------------|-----------------|-----------------|-3---------------|

Outro:
[A]  
 
 G|-----------------|-----------------|-----------------|-----------------|
 D|-----------------|-----------------|-----------------|-----------------|
 A|-----------------|-----------------|-----------------|-----------------|
 E|-5-5-5-5-5-5-5-5-|-5-5-5-5-5-5-5-5-|-5-5-5-5-5-5-5-5-|-5-5-5-5-5-5-5-5-|

[A]  
 
 G|-----------------|-----------------|-----------------|-----------------|
 D|-----------------|-----------------|-----------------|-----------5-6-7-|
 A|-----------------|-----------------|-----------------|-----------------|
 E|-5-5-5-5-5-5-5-5-|-5-5-5-5-5-5-5-5-|-5-5-5-5-5-5-5-5-|-5-5-5-5-5-------|

[A]  
 
 G|-----------------|-----------------|-----------------|-----------------|
 D|-----------------|-----------------|-----------------|-----------------|
 A|-----------------|-----------------|-----------------|-----------------|
 E|-5-5-5-5-5-5-5-5-|-5-5-5-5-5-5-5-5-|-5-5-5-5-5-5-5-5-|-5-5-5-5-5-5-5-5-|

[A]  
 
 G|-----------------|-----------------|-----------------|-----------------|
 D|-----------------|-----------------|-----------------|-----------------|
 A|-----------------|-----------------|-----------------|-----------------|
 E|-5-5-5-5-5-5-5-5-|-5-5-5-5-5-5-5-5-|-5-5-5-5---------|-5-5-5-5---------|

[A] [G] [F#] [E] [A]  
 
 G|-----------------|-----------------|
 D|-7-7-7-7---------|-5---4---2-------|
 A|-----------------|-----------------|
 E|-----------------|-------------5---|


Important: The song above is NOT stored on the Chordie server. The original song is hosted at www.guitartabs.cc. Chordie works as a search engine and provides on-the-fly formatting. Chordie does not index songs against artists'/composers' will. To remove this song please click here.

Text color:
Chord color:
Chord grids: 
Font size:    
Page size: 

A D E F# G
Rate #1 of 5 versions

Login - add to songbook

SHARE PAGE  




You need to log in to post comments