Guitar Tabs, Chords and Lyrics
Major upgrade!! After one year development the new version of Chordie is now online! Please give feedback.


Hells Bells  AC/DC

AC/DC-Hells Bells
Back in Black (1980)
Transcribed by: playinbass1432
Email: playinbass1432@hotmail.com
Standard Tuning
Intro: (Start counting at 0:46)
[C] [B] [A] [A]  
 
 G|-----------------|-----------------|-----------------|-----------------|
 D|-----------------|-----------------|-----------------|-----------------|
 A|-----------3-2---|-----------------|-----------------|-----------------|
 E|---------------5-|-----------------|---------------5-|-----------------|

[C] [B] [A]  
 
 G|-----------------|-----------------|-----------------|-----------------|
 D|-----------------|-----------------|-----------------|-----------------|
 A|-----------3-2---|-----------------|-----------------|-----------------|
 E|---------------5-|-5-5-5-5-5-5-5-5-|-5-5-5-5-5-5-5-5-|-5-5-5-5-5-5-5-5-|

[A] [C] [B] [A] [G]  
 
 G|-----------------|-----------------|-----------------|-----------------|
 D|-----------------|-----------------|-----------------|------------57---|
 A|-----------3-2---|-----------------|-----------------|----------57-----|
 E|-5-5-5-5-5-----5-|-5-5-5-5-5-5-5-5-|-5-5-5-5-5-5-5-5-|-5-5-5-5-5-----3-|

[G] [D] [C] [B] [A]  
 
 G|-----------------|
 D|-----------------|
 A|-------5---3-2---|
 E|---3-3---------5-|

Pre Verse 1:
[A] [D] [C] [B] [A] [D] [C] [B]  
 
 G|-----------------|-----------------|-----------------|-----------------|
 D|-----------------|-----------------|-----------------|-----------------|
 A|---------------5-|-5-5-5-5-3---2---|---------------5-|-5-5-5-5-3---2---|
 E|-5-5-5-5-5-5-5---|-----------------|-5-5-5-5-5-5-5---|-----------------|

Verse 1:
[A] [D] [C] [B] [A] [D] [C] [B]  
 
 G|-----------------|-----------------|-----------------|-----------------|
 D|-----------------|-----------------|-----------------|-----------------|
 A|---------------5-|-5-5-5-5-3-3-2-2-|---------------5-|-5-5-5-5-3-3-2-2-|
 E|-5-5-5-5-5-5-5---|-----------------|-5-5-5-5-5-5-5---|-----------------|

[A] [D] [C] [B] [A] [D] [C] [B]  
 
 G|-----------------|-----------------|-----------------|-----------------|
 D|-----------------|-----------------|-----------------|-----------------|
 A|---------------5-|-5-5-5-5-3-3-2-2-|---------------5-|-5-5-5-5-3---2---|
 E|-5-5-5-5-5-5-5---|-----------------|-5-5-5-5-5-5-5---|-----------------|

Pre Chorus 1:
[D] [C] [G] [D] [C] [G]  
 
 G|-----------------|-----------------|-----------------|-----------------|
 D|-----------------|-----------------|-----------------|-----------------|
 A|-5-5-5-5-5-5-5-5-|-5-5-5-5-3-------|-5-5-5-5-5-5-5-5-|-5-5-5-5-3-------|
 E|-----------------|-------------3---|-----------------|-------------3---|

[E] [D] [A] [E]  
 
 G|-----------------|-----------------|-----------------|-----------------|
 D|-----------------|-----------------|-----------------|-----------------|
 A|-7-7-7-7-7-7-7-7-|-7-7-7-7-5-------|-----------------|-----------------|
 E|-----------------|-------------5---|-0-0-0-0-0-0-0-0-|-0-0-0-0-2-2-3b--|

Chorus 1:
[A] [C] [B] [A]  
 
 G|-----------------|-----------------|-----------------|-----------------|
 D|-----------------|-----------------|-----------------|-----------------|
 A|-----------------|-----------------|-----------------|-----------3-2---|
 E|-5-5-5-5-5-5-5-5-|-5-5-5-5-5-5-5-5-|-5-5-5-5-5-5-5-5-|-5-5-5-5-5-----5-|

[A] [G] [G] [D] [C] [B] [A]  
 
 G|-----------------|-----------------|-----------------|-----------------|
 D|-----------------|-----------------|----------/7-7---|-----------------|
 A|-----------------|-----------------|-----------------|-------5\--3-2---|
 E|-5-5-5-5-5-5-5-5-|-5-5-5-5-5-5-5-5-|-5-5-5-5-------3-|---3-3---------5-|

Pre Verse 2:
[A] [D] [C] [B] [A] [D] [C] [B]  
 
 G|-----------------|-----------------|-----------------|-----------------|
 D|-----------------|-----------------|-----------------|-----------------|
 A|---------------5-|-5-5-5-5-3---2---|---------------5-|-5-5-5-5-3---2---|
 E|-5-5-5-5-5-5-5---|-----------------|-5-5-5-5-5-5-5---|-----------------|

Verse 2:
[A] [D] [C] [B] [A] [D] [C] [B]  
 
 G|-----------------|-----------------|-----------------|-----------------|
 D|-----------------|-----------------|-----------------|-----------------|
 A|---------------3/|-5-5-5-5-3-3-2-2-|---------------3/|-5-5-5-5-3-3-2-2-|
 E|-5-5-5-5-5-5-5---|-----------------|-5-5-5-5-5-5-5---|-----------------|

[A] [D] [C] [B] [A] [D] [C] [B]  
 
 G|-----------------|-----------------|-----------------|-----------------|
 D|-----------------|-----------------|-----------------|-----------------|
 A|---------------5-|-5-5-5-5-3-3-2-2-|---------------5-|-5-5-5-5-3---2---|
 E|-5-5-5-5-5-5-5---|-----------------|-5-5-5-5-5-5-5---|-----------------|

Pre Chorus 2:
[D] [C] [G] [D] [C] [G]  
 
 G|-----------------|-----------------|-----------------|-----------------|
 D|-----------------|-----------------|-----------------|-----------------|
 A|-5-5-5-5-5-5-5-5-|-5-5-5-5-3-------|/5-5-5-5-5-5-5-5-|-5-5-5\--3-------|
 E|-----------------|-------------3---|-----------------|-------------3---|

( Tab from: http://www.guitartabs.cc/tabs/a/ac_dc/hells_bells_btab_ver_4.html )
[E] [D] [A] [E] [4]  
 
 G|-----------------|-----------------|-----------------|-----------------|
 D|-----------------|-----------------|-----------------|-----------------|
 A|-7-7-7-7-7-7-7-7-|-7-7-7-7-5-------|-----------------|-----------------|
 E|-----------------|-------------5---|-0-0-0-0-0-0-0-0-|-0-0-0-0-2-2-3-3-|

Chorus 2:
[A] [C] [B] [A]  
 
 G|-----------------|-----------------|-----------------|-----------------|
 D|-----------------|-----------------|-----------------|-----------------|
 A|-----------------|-----------------|-----------------|-----------3-2---|
 E|-5-5-5-5-5-5-5-5-|-5-5-5-5-5-5-5-5-|-5-5-5-5-5-5-5-5-|-5-5-5-5-5-----5-|

[A] [G] [G] [D] [C] [B] [A]  
 
 G|-----------------|-----------------|-----------------|-----------------|
 D|-----------------|-----------------|-----------------|-----------------|
 A|-----------------|-----------------|-----------------|-------5---3-2---|
 E|-5-5-5-5-5-5-5-5-|-5-5-5-5-5-5-5-5-|-5-5-5-5-5-5-5-3-|---3-3---------5-|

Bridge:
[A]  
 
 G|-----------------|-----------------|-----------------|-----------------|
 D|-----------------|-----------------|-----------------|-----------------|
 A|-----------------|-----------------|-----------------|-----------------|
 E|-5-5-5-5-5-5-5-5-|-5-5-5-5-5-5-5-5-|-5-5-5-5-5-5-5-5-|-5-5-5-5-5-5-5-5-|

Guitar Solo:
[A] [G] [A] [C] [D] [A] [G] [A] [C] [D]  
 
 G|-----------------|-----------------|-----------------|-----------------|
 D|-----------------|-----------------|-----------------|-----------------|
 A|---------------3-|-------5---------|---------------3-|-------5---------|
 E|-5-3-5-----------|-----------------|-5-3-5-----------|-----------------|

[A] [G] [A] [C] [D] [A] [G] [A] [C] [D]  
 
 G|-----------------|-----------------|-----------------|-----------------|
 D|-----------------|-----------------|-----------------|-----------------|
 A|---------------3-|-------5---5-5---|---------------3-|-------5-5-5-5-5-|
 E|-5-3-5-----------|-----------------|-5-3-5-----------|-----------------|

[D] [C] [D] [C] [D] [C] [G] [D] [C] [D] [C] [D] [C] [G]  
 
 G|-----------------|-----------------|-----------------|-----------------|
 D|-----------------|-----------------|-----------------|-----------------|
 A|-5-5-3-5-5-5-3-5-|-5-5-5-5-3-3-----|-5-5-3-5-5-5-3-5-|-5-5-5-5-3-3-----|
 E|-----------------|-------------3---|-----------------|-------------3---|

[E] [D] [E] [D] [E] [D] [A] [E]  
 
 G|-----------------|-----------------|-----------------|-----------------|
 D|-----------------|-----------------|-----------------|-----------------|
 A|-7-7-5-7-7-7-5-7-|-7-7-7-7-5-------|-----------------|-----------------|
 E|-----------------|-------------5---|-0-0-0-0-0-0-0-0-|-0-0-0-1-2-2-3-3-|

Chorus 3:
[A] [C] [B] [A]  
 
 G|-----------------|-----------------|-----------------|-----------------|
 D|-----------------|-----------------|-----------------|-----------------|
 A|-----------------|-----------------|-----------------|-----------3-2---|
 E|-5-5-5-5-5-5-5-5-|-5-5-5-5-5-5-5-5-|-5-5-5-5-5-5-5-5-|-5-5-5-5-5-----5-|

[A] [C] [C] [D] [C] [B] [A]  
 
 G|-----------------|-----------------|-----------------|-----------------|
 D|-----------------|-----------------|-----------------|-----------------|
 A|-----------------|-----------------|---------------3-|---3-3-5---3-2---|
 E|-5-5-5-5-5-5-5-5-|-5-5-5-5-5-5-5-5-|-5-5-5-5-5-5-5---|---------------5-|

[A] [C] [C] [D] [C] [B] [A]  
 
 G|-----------------|-----------------|-----------------|-----------------|
 D|-----------------|----------------7|-----------------|-----------------|
 A|-----------------|-----------7/10--|---------------3-|---3-3-5---3-2---|
 E|-5-5-5-5-5-5-5-5-|-5-5-5-5-5-------|-5-5-5-5-5-5-5---|---------------5-|

[A] [C] [C] [D] [D]  
 
 G|-----------------|-----------------|-----------------|-----------------|
 D|-----------------|-----------------|------------57---|-----------------|
 A|-----------------|-----------------|----------57---3-|---3-3-5---5-5-5-|
 E|-5-5-5-5-5-5-5-5-|-5-5-5-5-5-5-5-5-|-5-5-5-5-5-------|-----------------|

Outro:
[A] [G] [A] [C] [D] [A] [G] [A] [C] [D]  
 
 G|-----------------|-----------------|-----------------|-----------------|
 D|-----------------|-----------------|-----------------|-----------------|
 A|---------------3-|-------5---------|---------------3-|-------5---------|
 E|-5-3-5-----------|-----------------|-5-3-5-----------|-----------------|

[A] [G] [A] [C] [D] [A] [G] [A] [C] [D]  
 
 G|-----------------|-----------------|-----------------|-----------------|
 D|-----------------|-----------------|-----------------|-----------------|
 A|---------------3-|-------5---------|---------------3-|-------5---------|
 E|-5-3-5-----------|-----------------|-5-3-5-----------|-----------------|

[A] [G] [A]  
 
 G|-----------------|-----------------|-----------------|
 D|-----------------|-----------------|-----------------|
 A|-----------------|-----------------|-----------------|
 E|-----------------|-----------------|-5-3-5-----------|


Important: The song above is NOT stored on the Chordie server. The original song is hosted at www.guitartabs.cc. Chordie works as a search engine and provides on-the-fly formatting. Chordie does not index songs against artists'/composers' will. To remove this song please click here.

Text color:
Chord color:
Chord grids: 
Font size:    
Page size: 

A B C D E G
Rate #1 of 15 versions

Jango Player

Login - add to songbook

SHARE PAGE  




You need to log in to post comments