Guitar Tabs, Chords and Lyrics
Major upgrade!! After one year development the new version of Chordie is now online! Please give feedback.


If You Dare  AC/DC

AC/DC-If You Dare
The Razors Edge (1990)
Transcribed by: playinbass1432
Email: playinbass1432@hotmail.com
Standard Tuning
Intro:
[D] [E] [D] [E] [D] [E] [D] [E]  
 
 G|-----------------|-----------------|-----------------|-----------------|
 D|-----------------|-----------------|-----------------|-----------------|
 A|-5---5---5-5-89--|-5---5---5-5-89--|-5---5---5-5-89--|-5---5---5-5-89--|
 E|---------------0-|---------------0-|---------------0-|---------------0-|

Verse 1:
[D] [E] [D] [A] [D] [A]  
 
 G|-----------------|-----------------|-----------------|-----------------|
 D|-----------------|-----------------|---------------7-|---------------7-|
 A|-5-5-5-5-5-5-5-5-|-5-5-5-5-5-5-89--|-5-5-5-5-5-5-79--|-5-5-5-5-5-5-79--|
 E|-----------------|---------------0-|-----------------|-----------------|

Chorus 1:
[A] [E] [A] [E]  
 
 G|-----------------|-----------------|-----------------|-----------------|
 D|-----------------|-----------------|-----------------|-----------------|
 A|-----------------|-----------765---|-----------------|-----------765---|
 E|-5-5-5-5-5-5-5-5-|-5-5-5-5-5----85-|-5-5-5-5-5-5-5-5-|-5-5-5-5-5----85-|

Verse 2:
[D] [A] [D] [A] [D] [A]  
 
 G|-----------------|-----------------|-----------------|-----------------|
 D|-----------------|--------------7--|--------------7--|---------------7-|
 A|-5-5-5-5-5-5-5-5-|-5-5-5-5-5-79--9-|-5-5-5-5-5-79----|-5-5-5-5----79---|
 E|-----------------|-----------------|-----------------|--------8-8------|

Chorus 2:
[A] [E] [A] [E]  
 
 G|-----------------|-----------------|-----------------|-----------------|
 D|-----------------|-----------------|-----------------|-----------------|
 A|-----------------|-----------765---|-----------------|-----------765---|
 E|-5-5-5-5-5-5-5-5-|-5-5-5-5-5----85-|-5-5-5-5-5-5-5-5-|-5-5-5-5-5----85-|

Bridge:
[C] [G] [D] [A] [D] [A] [D] [A]  
 
 G|-----------------|-----------------|-----------------|-----------------|
 D|-----------------|---------------7-|---------------7-|---------------7-|
 A|-3---------------|-5-5-5-5-5-5-79--|-5-5-5-5-5-5-79--|-5-5-5-5-5-5-79--|
 E|---------3-------|-----------------|-----------------|-----------------|

[D] [A]  
 
 G|-----------------|
 D|---------------7-|
 A|-5-5-5-5-5-5-79--|
 E|-----------------|

Chorus 3:
[A] [E] [A] [E]  
 
 G|-----------------|-----------------|-----------------|-----------------|
 D|-----------------|-----------------|-----------------|-----------------|
 A|-----------------|-----------765---|-----------------|-----------765---|
 E|-5-5-5-5-5-5-5-5-|-5-5-5-5-5----85-|-5-5-5-5-5-5-5-5-|-5-5-5-5-5----85-|

[A] [E] [A] [E]  
 
 G|-----------------|-----------------|-----------------|-----------------|
 D|-----------------|-----------------|-----------------|-----------------|
 A|-----------------|-----------765---|-----------------|-----------765---|
 E|-5-5-5-5-5-5-5-5-|-5-5-5-5-5----85-|-5-5-5-5-5-5-5-5-|-5-5-5-5-5----85-|

Guitar Solo:
( Tab from: http://www.guitartabs.cc/tabs/a/ac_dc/if_you_dare_btab.html )
[D] [G] [D] [F] [D] [G] [D] [F] [D] [G] [D] [F] [D] [G] [D] [F]  
 
 G|-----------------|-----------------|-----------------|-----------------|
 D|--------5-----3--|--------5-----3--|--------5-----3--|--------5-----3--|
 A|-5-5-5-5---5-5---|-5-5-5-5---5-5---|-5-5-5-5---5-5---|-5-5-5-5---5-5---|
 E|-----------------|-----------------|-----------------|-----------------|

[A] [E] [A] [E]  
 
 G|-----------------|-----------------|-----------------|-----------------|
 D|-----------------|-----------------|-----------------|-----------------|
 A|-----------------|-----------765---|-----------------|-----------765---|
 E|-5-5-5-5-5-5-5-5-|-5-5-5-5-5----85-|-5-5-5-5-5-5-5-5-|-5-5-5-5-5----85-|

[D] [G] [D] [F] [D] [G] [D] [F] [D] [G] [D] [F] [D] [G] [D]  
 
 G|-----------------|-----------------|-----------------|-----------------|
 D|--------5-----3--|--------5-----3--|--------5-----3--|--------5--------|
 A|-5-5-5-5---5-5---|-5-5-5-5---5-5---|-5-5-5-5---5-5---|-5-5-5-5---5-55--|
 E|-----------------|-----------------|-----------------|-----------------|

[E] [E] [E] [E] [D] [G] [A] [C]  
 
 G|-----------------|-----------------|-----4--5--------|-----------------|
 D|-----------------|-------------544-|-755--77---------|-----------------|
 A|-765---765---765-|----765---544----|-----------------|-----------------|
 E|----85----85-----|-85----85--------|-----------------|-----------------|

Chorus 4:
[A] [E] [A] [E]  
 
 G|-----------------|-----------------|-----------------|-----------------|
 D|-----------------|-----------------|-----------------|-----------------|
 A|-----------------|-----------765---|-----------------|-----------765---|
 E|-5-5-5-5-5-5-5-5-|-5-5-5-5-5----85-|-5-5-5-5-5-5-5-5-|-5-5-5-5-5----85-|

[A] [E] [A] [E]  
 
 G|-----------------|-----------------|-----------------|-----------------|
 D|-----------------|-----------------|-----------------|-----------------|
 A|-----------------|-----------765---|-----------------|-----------765---|
 E|-5-5-5-5-5-5-5-5-|-5-5-5-5-5----85-|-5-5-5-5-5-5-5-5-|-5-5-5-5-5----85-|

[A] [E] [A] [E]  
 
 G|-----------------|-----------------|-----------------|-----------------|
 D|-----------------|-----------------|-----------------|-----------------|
 A|-----------------|-----------765---|-----------------|-----------765---|
 E|-5-5-5-5-535-5-5-|-5-5-5-5-5----85-|-5-5-5-5-5-5-5-5-|-5-5-5-5-5----85-|

[A] [E] [A] [E]  
 
 G|-----------------|-----------------|-----------------|-----------------|
 D|-----------------|-----------------|-----------------|-----------------|
 A|-----------------|-----------765---|-----------------|-----------765---|
 E|-5-5-5-5-5-5-5-5-|-5-5-5-5-5----85-|-5-5-5-5-5-5-5-5-|-5-5-5-5-5----85-|

[E] [E] [E]  
 
 G|-----------------|-----------------|
 D|-----------------|-----------------|
 A|-765---765---765-|-----------------|
 E|----85----85-----|-8---------------|

Outro:
[A]  
 
 G|-----------------|-----------------|-----------------|
 D|-----------------|-----------------|-----------------|
 A|-----------------|-----------------|-----------------|
 E|-5555555555555555|55555555555555555|---------------5-|


Important: The song above is NOT stored on the Chordie server. The original song is hosted at www.guitartabs.cc. Chordie works as a search engine and provides on-the-fly formatting. Chordie does not index songs against artists'/composers' will. To remove this song please click here.

Text color:
Chord color:
Chord grids: 
Font size:    
Page size: 

A C D E F G
Rate #1 of 4 versions

Jango Player

Login - add to songbook

SHARE PAGE  




You need to log in to post comments