Guitar Tabs, Chords and Lyrics
Major upgrade!! After one year development the new version of Chordie is now online! Please give feedback.


Kicked in the Teeth  AC/DC

Tuning:Standard
Tooth faced woman with your tooth faced live
 
 e-------------------------------------------|
 B-------------------------------------------|
 G-------------------------------------------|
 D-------------------------------------------|
 A-------------------------------------------|
 E-------------------------------------------|
 e-------------------------------------------|
 B-------------------------------------------|
 G--5--2--2--2-------------------------------|
 D--5--2--2--2-------------------------------|
 A--3--0--0--0-------------------------------|
 E-------------------------------------------|

I hope your tooth faced livin' made you satisfied
 
 e------------------------------------------------|
 B------------------------------------------------|
 G------------------------------------------------|
 D------------------------------------------------|
 A------------------------------------------------|
 E------------------------------------------------|
 e-------------------------------------------|
 B-------------------------------------------|
 G--5--2--2--2-------------------------------|
 D--5--2--2--2-------------------------------|
 A--3--0--0--0-------------------------------|
 E-------------------------------------------|

You told me baby, I was your only one
 
 e-------------------------------------------|
 B-------------------------------------------|
 G-------------------------------------------|
 D-------------------------------------------|
 A-------------------------------------------|
 E-------------------------------------------|
 e------------------------------|
 B------------------------------|
 G---5---5--5--5---5--5~~~~~/---|
 D-----7---------7--------------|
 A------------------------------|
 E------------------------------|

Why you bin' runnin' 'round town with every mothers son
 
 e------------------------------------------------------|
 B------------------------------------------------------|
 G------------------------------------------------------|
 D------------------------------------------------------|
 A------------------------------------------------------|
 E------------------------------------------------------|
 e--------------|--------------------------------------------------|
 B--------------|--------------------------------------------------|repeat 2x
 G--5--2--2--2--|--5--2--2--2--5--2--2--2--5--2--2--2--5--2--2--2--|
 D--5--2--2--2--|--5--2--2--2--5--2--2--2--5--2--2--2--5--2--2--2--|
 A--3--0--0--0--|--3--0--0--0--3--0--0--0--3--0--0--0--3--0--0--0--|
 E--------------|--------------------------------------------------|
 e------------|------------|---|
 B------------|------------|---|
 G--5--2----2-|--5--2----2-|-2-|
 D--5--2----2-|--5--2----2-|-2-|
 A--3--0----0-|--3--0----0-|-0-|
 E------------|------------|---|

Then play
 
 e--------------------------------|
 B---3------------------3---------|
 G---2-------5----------2---------|
 D---0-------5---5------0---------|
 A-----------3---5----------------|
 E---------------3----------------|

Then before the solo play this
 
 e------------------------|----------------|
 B------------------------|-3--3--3--3--3--|
 G------------------------|-2--2--2--2--2--|
 D--2-2-2-2-2-2-2-2-2-2-2-|-0--0--0--0--0--|
 A--2-2-2-2-2-2-2-2-2-2-2-|----------------|
 E--0-0-0-0-0-0-0-0-0-0-0-|----------------|

Solo
 
 e--8~~~~-8~~~~--10-8-12-10~~~~-8~-8~-8~/--|
 B--8~~~~-8~~~~---8-8--8--8~~~~-8~-8~-8~/--|
 G-----------------------------------------|
 D-----------------------------------------|
 A-----------------------------------------|
 E-----------------------------------------|
 e--10~~~-10~~~-10-5-8-----------------|
 B---------------------8-5-------------|
 G-------------------------7-5---------|
 D-----------------------------7-5-----|
 A---------------------------------5/--|
 E-------------------------------------|
 e--------------------------10-8-7------------------|
 B-10-10-10-10~~~--(10-8-7)--------10-8-7/5---------|
 G------------------------------------------7-5-----|
 D----------------------------------------------7~~-|
 A--------------------------------------------------|
 E--------------------------------------------------|
 e--10-10----10~~-10-10-10~~~-5-8-5--5-5~~~-----------------------|
 B------------------------------------------8-5---------8b-5------|
 G----------------------------------------------7-5-7b-------7-5--|
 D----------------------------------------------------------------|
 A----------------------------------------------------------------|
 E----------------------------------------------------------------|
 e--17-17~~~-17-17-17/--12121212121212121212121212/--|
 B----------------------12121212121212121212121212/--|
 G---------------------------------------------------|
 D---------------------------------------------------|
 A---------------------------------------------------|
 E---------------------------------------------------|
 e-12-11-10-9-8-7-6-5-4-3-2-1------------------|----------------------|
 B-12-11-10-9-8-7-6-5-4-3-2-1------------------|-12-12-12-12-13-13-13-|
 G----------------------------5-------5--------|-12-12-12-12-12-12-12.|
 D------------------------------7-7~~---7-7~~--|---------------------.|
 A---------------------------------------------|----------------------|
 E---------------------------------------------|----------------------|
 e-------------------|---------------------------| this line contains
 B-------------------|---------------------------| some pinch harmonics
 G--5-------5--------|--7p5---5------------------|
 D----7-7~~---7-7~~~-|------7---7-5--------------|
 A-------------------|--------------7-5/3--------|
 E-------------------|--------------------5-3/\--|
 e-------------------|--------------------------------------------|
 B-------------------|--------------------------------------------|
 G--5-------5--------|--------------------------------------------|
 D----7-7~~---7-7~~~-|--------------------------------------------|
 A-------------------|--0000000000000000000000000000000000000000--|
 E-------------------|--------------------------------------------|
 e-----------------------------------------------------|
 B-----------------------------------------------------| tremelo pick all
 G-----------------------------------------------------| of these
 D-----------------------------------------------------|
 A-0-2-1-4-3-6-5-8-7-10-9-12-11-14-13-16-15-18-17-19/--| then play a simple
 E-----------------------------------------------------| A chord and play the

beginning again
Chords
[A] [C] [D] [G]  
 
 e---|---|---|---|
 B---|---|-3-|---|
 G-2-|-5-|-2-|---|
 D-2-|-5-|-0-|-5-|
 A-0-|-3-|---|-5-|
 E---|---|---|-3-|

That's it
submitted:2/9/05
updated: 6/11/05

Important: The song above is NOT stored on the Chordie server. The original song is hosted at www.guitartabs.cc. Chordie works as a search engine and provides on-the-fly formatting. Chordie does not index songs against artists'/composers' will. To remove this song please click here.

Text color:
Chord color:
Chord grids: 
Font size:    
Page size: 

A C D G
Rate #0 of 2 versions

Login - add to songbook

SHARE PAGE  




You need to log in to post comments