Guitar Tabs, Chords and Lyrics
Update 25:10. 13:00. Site is back up running again. Songbooks are recovered. Woring on getting search back up..


Let’s Make It  AC/DC

AC/DC-Let's Make It
The Razor's Edge (1990)
Transcribed by: playinbass1432
Email: playinbass1432@hotmail.com
Standard Tuning, both guitars (Malcolm=Top, Angus=Bottom)
Intro:
[E5] [G5] [D5] [A5]  
 
 E|-----------------|-----------------|-----------------|-----------------|
 B|-----------------|-----------------|-3---------------|-----------------|
 G|-----------------|-----------------|-2---------------|-2---------------|
 D|-2---------------|-5---------------|-0---------------|-2---------------|
 A|-2---------------|-5---------------|-----------------|-0---------------|
 E|-0---------------|-3---------------|-----------------|-----------------|

|
 
 E|-----------------|-----------------|-----------------|-----------------|
 B|-----------------|-----------------|-3---------------|-----------------|
 G|-------2---1-----|-------5---4---0-|-2---------------|-2-----7---6-----|
 D|-2-------------2-|-5---------------|-0-----5---4---0-|-2-------------7-|
 A|-2---------------|-5---------------|-----------------|-0---------------|
 E|-0---------------|-3---------------|-----------------|-----------------|

[E5] [G5] [D5] [A5]  
 
 E|-----------------|-----------------|-----------------|-----------------|
 B|-----------------|-----------------|-3---------------|-----------------|
 G|-----------------|-----------------|-2---------------|-2---------------|
 D|-2---------------|-5---------------|-0---------------|-2---------------|
 A|-2---------------|-5---------------|-----------------|-0---------------|
 E|-0---------------|-3---------------|-----------------|-----------------|

|
 
 E|-----------------|-----------------|-----------------|-----------------|
 B|-----------------|-----------------|-3---------------|-----------------|
 G|-------2---1-----|-------5---4---0-|-2---------------|-2---------------|
 D|-2-------------2-|-5---------------|-0-----5---4---0-|-2---------------|
 A|-2---------------|-5---------------|-----------------|-0---------------|
 E|-0---------------|-3---------------|-----------------|-----------------|

[A5]  
 
 E|-----------------|
 B|-----------------|
 G|-----------------|
 D|-2-2-2-2-2-2-2-2-|


Important: The song above is NOT stored on the Chordie server. The original song is hosted at www.guitartabs.cc. Chordie works as a search engine and provides on-the-fly formatting. Chordie does not index songs against artists'/composers' will. To remove this song please click here.

Text color:
Chord color:
Chord grids: 
Font size:    
Page size: 

A5 D5 E5 G5
Rate #1 of 1 versions

Jango Player

Login - add to songbook

SHARE PAGE  




You need to log in to post comments