Guitar Tabs, Chords and Lyrics
Major upgrade!! After one year development the new version of Chordie is now online! Please give feedback.


Live Wire  AC/DC

[AB5] [D5B5] 
~~~ ~~~~~~~~~~~~~ ~~~~~~~~~~~~
+E E E E E a +Q. +E E E a +E +H
 
 |-------------------------||------7-----------------------|
 |-------------------------||--------7-10b12==(10)-(10)----|
 |-(4)-2-4-2-4-9b11==(9)---||-(9)r-------------------------|
 |-------------------------||------------------------------|
 |-------------------------||------------------------------|
 |-------------------------||------------------------------|

~~~~~~~[D5] [B5]
|-3-|
+E S S S S S S S S S S S E S S
 
 |-------7-----------------------------|
 |-(10)r---10-7---7--------------------|
 |--------------9---9-9p7-9p7---7------|
 |----------------------------9---9-7--|
 |-------------------------------------|
 |-------------------------------------|

~ [D5] ~~~ [B5] [D5] [B5] ~~~~
Q E E +E a +Q. +E +Q E E Q a +E
 
 |------------------------|-----------------------------------|
 |----7-7-(7)-------------|----------------12-12--15b17==(15)-|
 |----7-7-(7)-9b11==(9)---|-(9)-(9)r\--/13--------------------|
 |-9----------------------|-----------------------------------|
 |------------------------|-----------------------------------|
 |------------------------|-----------------------------------|

~~~~~~~ [D5] [B5] [D5] [B5] ~~~~
+H S S S a S S S S S Q a +Q +S +S E E a +E
 
 |----------12-14-12-------------------|-----------------------------------------------|
 |-(15)r-------------15p12-12-14-12----|-12--14b15==(14)--(14)r(14)p12-14-14b15==(14)--|
 |----------------------------------14-|-----------------------------------------------|
 |-------------------------------------|-----------------------------------------------|
 |-------------------------------------|-----------------------------------------------|
 |-------------------------------------|-----------------------------------------------|

~~~~ [D5] [B5] ~~~~
+Q. +E E E E a +E E +E a +Q +S S E E a +E
 
 |------------------------------------|-----------------------------------------------------|
 |-(14)---(14)\----------15b16==(15)r-|--------------17b19==(17)--(17)r17p15-15-17b19==(17)-|
 |--------------/18-14----------------|-16b18==(16)r----------------------------------------|
 |------------------------------------|-----------------------------------------------------|
 |------------------------------------|-----------------------------------------------------|
 |------------------------------------|-----------------------------------------------------|

~[G5]~~~~~~ ~~~~
[+B] [a] [+E] [E] [E] [a] [+E]  
 
 |-----------------------------------------|
 |-(17)r----17b19==(17)r17-15-17b19==(17)--|
 |-----------------------------------------|
 |-----------------------------------------|
 |-----------------------------------------|
 |-----------------------------------------|

~~~
[B] [a] [+E] [E] [E] [a] [+E]  
 
 |--------------------------17b19==(17)-|
 |-17r----17b19==(17)r17-15-------------|
 |--------------------------------------|
 |--------------------------------------|
 |--------------------------------------|
 |--------------------------------------|

[B5] ~~
|--3--|
+Q E E E S S S S E. S Q E E +Q Q
 
 |-(17)r--17-----------------------------|-----------------------|
 |-----------19-17-17----------17--------|-----------------------|
 |--------------------19-16b19----19--16-|-16--19-19-(19)\-------|
 |---------------------------------------|-----------------------|
 |---------------------------------------|-----------------------|
 |---------------------------------------|-----------------------|

[G5] ~~~~~ ~~~~~
 
 |-----5-----|

E a +Q. a +Q. S S S S S S S S S S S a +Q. E
 
 |---22b24==(22)r---22b24==(22)r---22p19-|-22-19----19-------------------------------------|
 |---------------------------------------|-------19----22-19-------19-------------------22-|
 |---------------------------------------|-------------------21b23----21-21b23==(21)r------|
 |---------------------------------------|-------------------------------------------------|
 |---------------------------------------|-------------------------------------------------|
 |---------------------------------------|-------------------------------------------------|

[F#5] [A5] [E5] [B5]~
a +Q E a E +E E a +Q +S S E E E E Q E
 
 |----------------------------------------------------|--------------------------------|
 |---------------22---------22--(22)------------------|------------------19-19\--------|
 |-21b23==(21)r-----21b23==(21)-(21)r-21-21b23==(21)--|-(21)r21-19-21b22-----------4---|
 |----------------------------------------------------|--------------------------------|
 |----------------------------------------------------|--------------------------------|
 |----------------------------------------------------|--------------------------------|

~ ~~~~~~~~ [A5] [E5] [B5]~~~
[E] [E] [E] [E] [E] [E] [+E] [E] [+E] [E] [E] [E] [E] [E] [+E] [E]  
 
 |-------------------|---------------------|
 |-----------3-(3)---|-------------3-(3)---|
 |-4-2-4-2-4-------4-|-(4)-2-4-2-4-------4-|
 |-------------------|---------------------|
 |-------------------|---------------------|
 |-------------------|---------------------|

~~~~~ ~~~~~~~~ [A5] [E5] [B5]~
[+E] [E] [E] [E] [E] [E] [+E] [E] [+E] [E] [E] [E] [E] [E] [+E] [E]  
 
 |---------------------|----------------------|
 |-------------3-(3)---|-------------3-(3)----|
 |-(4)-2-4-2-4-------4-|-(4)-2-4-2-4-------4--|
 |---------------------|----------------------|
 |---------------------|----------------------|
 |---------------------|----------------------|

[B5]~ ~~~~~~~~ [A5] [E5] [B5]~~~
[E] [E] [E] [E] [E] [E] [+E] [E] [+E] [E] [E] [E] [E] [E] [+E] [E]  
 
 |-------------------|---------------------|
 |-----------3-(3)---|-------------3-(3)---|
 |-4-2-4-2-4-------4-|-(4)-2-4-2-4-------4-|
 |-------------------|---------------------|
 |-------------------|---------------------|
 |-------------------|---------------------|

N.C.
~~~~~ ~~~~~~~~ ~
[+E] [E] [E] [E] [E] [E] [+E] [E] [+E] [E] [E] [E] [E] [E] [+E] [E]  
 
 |---------------------|----------------------|
 |-------------3-(3)---|-------------3-(3)----|
 |-(4)-2-4-2-4-------4-|-(4)-2-4-2-4-------4--|
 |---------------------|----------------------|
 |---------------------|----------------------|
 |---------------------|----------------------|

~ ~~~~~~~~ ~
E E E E E E +E E +E E E E E E +E E +W +W +W
 
 |-------------------|---------------------|------------|------------|--------|
 |-----------3-(3)---|-------------3-(3)---|------------|------------|--------|
 |-4-2-4-2-4-------4-|-(4)-2-4-2-4-------4-|-(4)--------|-(4)--------|-(4)----|
 |-------------------|---------------------|------------|------------|--------|
 |-------------------|---------------------|------------|------------|--------|
 |-------------------|---------------------|------------|------------|--------|

W [E5B5] +W [A5E5B5] +W [E5B5] +W[A5E5B5]
 
 |------------|--------------|--------------|---------------|
 |------------|--------------|--------------|---------------|
 |-[4]--------|-([4])--------|-([4])--------|-([4])---------|
 |------------|--------------|--------------|---------------|
 |------------|--------------|--------------|---------------|
 |------------|--------------|--------------|---------------|

[B5] W [E5B5] +W [A5E5B5] +W [E5B5] +W[A5]
 
 |------------|--------------|--------------|---------------|
 |------------|--------------|--------------|---------------|
 |-[4]--------|-([4])--------|-([4])--------|-([4])---------|
 |------------|--------------|--------------|---------------|
 |------------|--------------|--------------|---------------|
 |------------|--------------|--------------|---------------|

[G5]Gtr II
|--3---|
W a +Q a +Q +Q +E E E
 
 |----------|---------------------------------------------|
 |----------|-10b12==(10)r--10b12==(10)--(10)--(10)r10p=7-|
 |----------|---------------------------------------------|
 |----------|---------------------------------------------|
 |----------|---------------------------------------------|
 |----------|---------------------------------------------|

[B5]W a +Q a +H +Q
 
 |----------|----------------------------------------|
 |----------|-10b12==(10)r--10b12==(10)----(10)r\----|
 |----------|----------------------------------------|
 |-9--------|----------------------------------------|
 |----------|----------------------------------------|
 |----------|----------------------------------------|

[G5]W a +Q a +H +Q [F#5]W W
 
 |----------|--------------------------------------|----------|------|
 |----------|-10b12==(10)r--10b12==(10)----(10)r\--|----------|------|
 |----------|--------------------------------------|----------|------|
 |----------|--------------------------------------|----------|------|
 |----------|--------------------------------------|----------|------|
 |----------|--------------------------------------|----------|------|

[G5] |-3--|
H Q a +Q a E E a +E E E +Q E E
 
 |----------------------|-----------------------------------|
 |---------10b12==(10)--|-(10)r10-7-------------------------|
 |----------------------|-----------9b11==(9)r9p7-(7)-------|
 |----------------------|------------------------------9\---|
 |----------------------|-----------------------------------|
 |----------------------|-----------------------------------|

[B5] ~~~~~~
H E a E E a +E +E E a +S S E +Q +Q
 
 |------------7-9b10==(9)-|-(9)r-7-9b10==(9)r9p7-(7)--(7)\----|
 |--------5s7-------------|-----------------------------------|
 |------------------------|-----------------------------------|
 |------------------------|-----------------------------------|
 |------------------------|-----------------------------------|
 |------------------------|-----------------------------------|

[G5] ~~~~~~~~
H E a +Q a +E +E E E +E +Q +Q
 
 |--------10b12==(10)--12b14==(12)-|-(12)r-12pb13==12pb14==(12)-(12)--(12)\--|
 |---------------------------------|-----------------------------------------|
 |---------------------------------|-----------------------------------------|
 |---------------------------------|-----------------------------------------|
 |---------------------------------|-----------------------------------------|
 |---------------------------------|-----------------------------------------|

[B5]H E a +Q. +E S S E a +E +E a +Q.
 
 |----------------------|-------------------------------------------------|
 |--------22b24==(22)---|-(22)r22p19-22-22b24==(22)-(22)r-22b24==(22)r----|
 |----------------------|-------------------------------------------------|
 |----------------------|-------------------------------------------------|
 |----------------------|-------------------------------------------------|
 |----------------------|-------------------------------------------------|

[G5] ~~~~~~~~~~~ ~~~~~~~~~~ ~~~~
a +E a +Q. +E E E a +E +H +S S E E a +E
 
 |----------------------------------19----------------|-----------------------------------|
 |-22b24==(22)r-22b24==(22)---(22)r----19-22b24==(22)-|-(22)----(22)r22p19-22-22b24==(22)-|
 |----------------------------------------------------|-----------------------------------|
 |----------------------------------------------------|-----------------------------------|
 |----------------------------------------------------|-----------------------------------|
 |----------------------------------------------------|-----------------------------------|

~[B5]~~~~~~ ~~~~~~~~~
|--3--|
+H E E E E a +E +E E a +E +E +Q. S S
 
 |----------------------------------|-----------------------------------19-22---|
 |-(22)r----22p19----19-------------|-------22----------------------------------|
 |----------------21----21b23==(21)-|-(21)r----21b22==(21)-(21)-(21)r-----------|
 |----------------------------------|-------------------------------------------|
 |----------------------------------|-------------------------------------------|
 |----------------------------------|-------------------------------------------|

[G5] ~~~~
S a +S S S S S S S S S S S S E. +E S S a +E E +Q E a +E
 
 |-19--------------19--------------------------------------|-------------------------------------------------|
 |----22b24==(22)r----22p19----19--------------------------|-------------------------------------22b24==(22)-|
 |--------------------------21----21p19----21----19-21b23==|=(21)r21p19-21b23==(21)r-21-(21)--21-------------|
 |--------------------------------------21----21-----------|-------------------------------------------------|
 |---------------------------------------------------------|-------------------------------------------------|
 |---------------------------------------------------------|-------------------------------------------------|

[B5] +E S S a +Q +E a +E E E E E +Q +E E E +E
 
 |-------------------------------------------------|-22--------------------22----------------|
 |-(22)r22p19-22b24==(22)--(22)r-22b24==(22)r22p19-|----22b24==(22)--(22)r----22b24==(22)r---|
 |-------------------------------------------------|-----------------------------------------|
 |-------------------------------------------------|-----------------------------------------|
 |-------------------------------------------------|-----------------------------------------|
 |-------------------------------------------------|-----------------------------------------|

[G5]  
[E] [E] [+E] [E] [E] [+E] [E] [E] [+E] [E] [E] [+E] [E] [E] [+E] [E]  
 
 |-22--------------22--------------22--------|-------22--------------22--------------22-|
 |----22b24==(22)r----22b24==(22)r----22b24==|=(22)r----22b24==(22)r----22b24==(22)r----|
 |-------------------------------------------|------------------------------------------|
 |-------------------------------------------|------------------------------------------|
 |-------------------------------------------|------------------------------------------|
 |-------------------------------------------|------------------------------------------|

[B5]  
[E] [+E] [E] [E] [+E] [E] [E] [+E] [E] [E] [+E] [E] [a] [+E] [E] [E] [a] [+E]  
 
 |--------------22--------------22--------------|-22--------------22-------------------22b24==(22)--|
 |-22b24==(22)r----22b24==(22)r----22b24==(22)r-|----22b24==(22)r----22b24==(22)r22p19--------------|
 |----------------------------------------------|---------------------------------------------------|
 |----------------------------------------------|---------------------------------------------------|
 |----------------------------------------------|---------------------------------------------------|
 |----------------------------------------------|---------------------------------------------------|

[G5] ~~~~~~~~~
|--3--|
Q a +Q +Q +S S S S S S S S S S S S S S S S S S S a S S
 
 |-22r--22b24==(22)--(22)--(22)r22-21-22-|-22p21p19-21----19-------------------------------------|
 |---------------------------------------|-------------22----22p19----19-------------------------|
 |---------------------------------------|-------------------------21----21-19-------------------|
 |---------------------------------------|-------------------------------------21-21-19-19h21-19-|
 |---------------------------------------|-------------------------------------------------------|
 |---------------------------------------|-------------------------------------------------------|

[B5] ~~ ~~~~~~~~~ ~~~~~~~ ~~
S S S S Q E E +E E +E E E E +E E E E
 
 |-------------------------------|-----------------------------|
 |-----------------19-19-(19)----|------19-19---------19-19----|
 |-----------------19-19-(19)----|------19-19---------19-19----|
 |-21----19-21-21-------------21-|-(21)-------21-(21)-------21-|
 |----21-------------------------|-----------------------------|
 |-------------------------------|-----------------------------|

[G5] ~~ ~~~~~~~ ~~~~~~~~~ ~~~~~~~ ~~~
[E] [E] [E] [E] [+E] [E] [E] [E] [+E] [E] [E] [E] [+E] [E] [E] [E]  
 
 |---------------------------|-----------------------------|
 |----19-19---------19-19----|------19-19---------19-19----|
 |----19-19---------19-19----|------19-19---------19-19----|
 |-21-------21-(21)-------21-|-(21)-------21-(21)-------21-|
 |---------------------------|-----------------------------|
 |---------------------------|-----------------------------|

~[B5]~~~~~ ~~~~~~~ ~~~~~~~~~ ~~~~~~~ ~~
[+E] [E] [E] [E] [+E] [E] [E] [E] [+E] [E] [E] [E] [+E] [E] [E] [E]  
 
 |-----------------------------|------------------------------|
 |------19-19---------19-19----|------19-19---------19-19-----|
 |------19-19---------19-19----|------19-19---------19-19-----|
 |-(21)-------21-(21)-------21-|-(21)-------21-(21)-------21--|
 |-----------------------------|------------------------------|
 |-----------------------------|------------------------------|

[G5] ~~ ~~~~~~~ ~~~~~~~~~ ~~~~~~~ ~~~
[E] [E] [E] [E] [+E] [E] [E] [E] [+E] [E] [E] [E] [+E] [E] [E] [E]  
 
 |---------------------------|-----------------------------|
 |----19-19---------19-19----|------19-19---------19-19----|
 |----19-19---------19-19----|------19-19---------19-19----|
 |-21-------21-(21)-------21-|-(21)-------21-(21)-------21-|
 |---------------------------|-----------------------------|
 |---------------------------|-----------------------------|

~[B5]~~~~~ ~~~~~~~ ~~~~~~~~~ ~~~~~~~ ~~
[+E] [E] [E] [E] [+E] [E] [E] [E] [+E] [E] [E] [E] [+E] [E] [E] [E]  
 
 |-----------------------------|------------------------------|
 |------19-19---------19-19----|------19-19---------21-19-----|
 |------19-19---------19-19----|------19-19---------21-19-----|
 |-(21)-------21-(21)-------21-|-(21)-------21-(21)-------21--|
 |-----------------------------|------------------------------|
 |-----------------------------|------------------------------|

[G5] ~~ ~~~~~~~ ~~~~~~~~~ ~~~~~~~ ~~~
[E] [E] [E] [E] [+E] [E] [E] [E] [+E] [E] [E] [E] [+E] [E] [E] [E]  
 
 ||----------------------------|-----------------------------|
 ||o----21-19---------21-19----|------21-19---------21-19----|
 ||-----21-19---------21-19----|------21-19---------21-19----|
 ||--21-------21-(21)-------21-|-(21)-------21-(21)-------21-|
 ||o---------------------------|-----------------------------|
 ||----------------------------|-----------------------------|

~[B5]~~~~~ ~~~~~~~ ~~~~~~~~~ ~~~~~~~ ~~
[+E] [E] [E] [E] [+E] [E] [E] [E] [+E] [E] [E] [E] [+E] [E] [E] [E]  
 
 |-----------------------------|------------------------------||
 |------21-19---------21-19----|------21-19---------21-19----o||
 |------21-19---------21-19----|------21-19---------21-19-----||
 |-(21)-------21-(21)-------21-|-(21)-------21-(21)-------21--||
 |-----------------------------|-----------------------------o||
 |-----------------------------|------------------------------||


Important: The song above is NOT stored on the Chordie server. The original song is hosted at www.guitartabs.cc. Chordie works as a search engine and provides on-the-fly formatting. Chordie does not index songs against artists'/composers' will. To remove this song please click here.

Text color:
Chord color:
Chord grids: 
Font size:    
Page size: 

A5 B B5 D5 E E5 F#5 G5
Rate #1 of 10 versions

Jango Player

Login - add to songbook

SHARE PAGE  



You need to log in to post comments