Guitar Tabs, Chords and Lyrics
Server problems seems to be fixed. Chordie has been experiencing problems with songs disappearing. These issues now seems to be fixed, but still verifying the fix. If you find anything strange, please email admin@chordie.com.


Love Hungry Man  AC/DC

AC/DC - Love Hungry Man
Highway to Hell (1979)
Transcription by playinbass1432
playinbass1432@hotmail.com
 
 ------------

Intro (0:16)
[Db] [F] [F#] [Ab]  
 
 Gb|-----------------|-----------------|-----------------|-----------------|
 Db|-----------------|-----------------|-----------------|-----------------|
 Ab|-5---------------|-----------------|-----------------|-----------------|
 Eb|-----------------|-2-------3-------|-5---------------|-----------------|

[Db] [F] [F#] [Ab]  
 
 Gb|-----------------|-----------------|-----------------|-----------------|
 Db|-----------------|-----------------|-----------------|-----------------|
 Ab|-5---------------|-----------------|-----------------|-----------------|
 Eb|-----------------|-2-------3-------|-5---------------|-----------------|
 -------

Verse 1
[Db] [F] [F#] [F#] [F#] [Ab] [F#] [Ab]  
 
 Gb|-----------------|-----------------|-----------------|-----------------|
 Db|-----------------|-----------------|-542-------------|-----------------|
 Ab|-5---------------|-----------------|----x5-3---------|-----------------|
 Eb|-----------------|-2-------3-------|---------5-----3-|-5---5-3-5-------|

[Db] [F] [F#] [F#] [F#] [Ab] [F#] [Ab]  
 
 Gb|-----------------|-----------------|-----------------|-----------------|
 Db|-----------------|-----------------|-542-------------|-----------------|
 Ab|-5---------------|-----------------|----x5-3---------|-----------------|
 Eb|-----------------|-2-------3-------|---------5-----3-|-5---5-3-5-------|

[F#] [F#] [Ab] [F#] [Ab] [F#] [Ab] [F#] [Ab]  
 
 Gb|-----------------|-----------------|-----------------|-----------------|
 Db|-542-------------|-----------------|-542-------------|-----------------|
 Ab|----x5-3---------|-----------------|----x5-3---------|-----------------|
 Eb|---------5-----3-|-5---5-3-5-------|---------5-----3-|-5---5-3-5-------|

[F#] [F#] [Ab] [F#] [Ab] [F#] [Ab] [F#] [Ab]  
 
 Gb|-----------------|-----------------|-----------------|-----------------|
 Db|-542-------------|-----------------|-542-------------|-----------------|
 Ab|----x5-3---------|-----------------|----x5-3---------|-----------------|
 Eb|---------5-----3-|-5---5-3-5-------|---------5-----3-|-5---5-3-5-------|
 --------

Chorus 1
[Db] [F] [F#] [F#] [F#] [Ab] [F#] [Ab]  
 
 Gb|-----------------|-----------------|-----------------|-----------------|
 Db|-----------------|-----------------|-542-------------|-----------------|
 Ab|-5---------------|-----------------|----x5-3---------|-----------------|
 Eb|-----------------|-2-------3-------|---------5-----3-|-5---5-3-5-------|

[Db] [F] [F#] [F#] [F#] [Ab] [F#] [Ab]  
 
 Gb|-----------------|-----------------|-----------------|-----------------|
 Db|-----------------|-----------------|-542-------------|-----------------|
 Ab|-5---------------|-----------------|----x5-3---------|-----------------|
 Eb|-----------------|-2-------3-------|---------5-----3-|-5---5-3-5-------|
 -------

Verse 2
[Ab]  
 
 Gb|-----------------|-----------------|-----------------|-----------------|
 Db|-----------------|-----------------|-----------------|-----------------|
 Ab|-----------------|-----------------|-----------------|-----------------|
 Eb|-35-55-3-5-------|-35-55-3-5-------|-35-55-3-5-------|-35-55-3-5-------|

[Ab]  
 
 Gb|-----------------|-----------------|-----------------|-----------------|
 Db|-----------------|-----------------|-----------------|-----------------|
 Ab|-----------------|-----------------|-----------------|-----------------|
 Eb|-35-55-3-5-------|-35-55-3-5-------|-35-55-3-5-------|-35-55-3-5-------|
 --------

Chorus 2
[Db] [F] [F#] [F#] [Ab] [F#] [Ab]  
 
 Gb|-----------------|-----------------|-----------------|-----------------|
 Db|-----------------|-----------------|-542-------------|-----------------|
 Ab|-5---------------|-----------------|----x5-3---------|-----------------|
 Eb|-----------------|-2-------3-------|---------5-------|-35-55-3-5-------|

[Db] [F] [F#] [F#] [F#] [Ab] [F#] [Ab]  
 
 Gb|-----------------|-----------------|-----------------|-----------------|
 Db|-----------------|-----------------|-542-------------|-----------------|
 Ab|-5---------------|-----------------|----x5-3---------|---------------3-|
 Eb|-----------------|-2-------3-------|---------5-----3-|-5---5-3-5-------|
 -----------

Guitar Solo
[Db] [F#] [D] [D] [F#] [F] [Ab]  
 
 Gb|-----------------|-----------------|-----------------|-----------------|
 Db|---------5-------|---------5---4---|-----------------|-----------------|
 Ab|-5---5-5-----5---|35---5-5---------|-----------------|-----------------|
 Eb|-----------------|-----------------|-35-55-3-5-------|-35-55-3-5-------|

[Db] [F#] [F] [D] [F#] [F] [Ab]  
 
 Gb|-----------------|-----------------|-----------------|-----------------|
 Db|---------5---4---|---------5---4---|-----------------|-----------------|
 Ab|-5---5-5---------|-5---5-5---------|-----------------|---------------2-|
 Eb|-----------------|-----------------|-35-55-3-5-------|-35-55-3-5-------|

[B] [E] [Eb] [F#] [B] [Bb] [Db] [F#] [F] [Db] [F#] [F]  
 
 Gb|-----------------|-----------------|-----------------|-----------------|
 Db|---------3---2---|-----------------|---------5---4---|---------5---4p2-|
 Ab|-3-33--3---------|---------3---2---|35---5-5---------|-5---5-5---------|
 Eb|-----------------|-3---3-3---------|-----------------|-----------------|

[B] [E] [Eb] [F#] [B] [Bb] [Ab]  
 
 Gb|-----------------|-----------------|-----------------|-----------------|
 Db|---------3---2---|-----------------|-----------------|-57-77-5-7-------|
 Ab|-3-33--3---------|---------3---2---|-----------------|-----------------|
 Eb|-----------------|-3---3-3---------|-35-55-3-5-------|-----------------|

[Ab]  
 
 Gb|-----------------|-12-14---14-14-12-14-|
 Db|-57-77-5-7-------|---------------------|
 Ab|-----------------|---------------------|
 Eb|-----------------|---------------------|
 ------

Bridge
[Db] [F] [F#] [Ab]  
 
 Gb|-----------------|-----------------|-----------------|-----------------|
 Db|-----------------|-----------------|-----------------|-----------------|
 Ab|-5---------------|-----------------|-----------------|-----------------|
 Eb|-----------------|-2-------3-------|-5---------------|-----------------|

[Db] [F] [F#] [Ab]  
 
 Gb|-----------------|-----------------|-----------------|-----------------|
 Db|-----------------|-----------------|-----------------|-----------------|
 Ab|-5---------------|-----------------|-----------------|-----------------|
 Eb|-----------------|-2-------3-------|-5---------------|-----------------|
 --------

Chorus 3
[Db] [F] [F#] [F#] [F#] [Ab] [F#] [Ab]  
 
 Gb|-----------------|-----------------|-----------------|-----------------|
 Db|-----------------|-----------------|-542-------------|-----------------|
 Ab|-5---------------|-----------------|----x5-3---------|-----------------|
 Eb|-----------------|-2-------3-------|---------5-----3-|-5---5-3-5-------|

[Db] [F] [F#] [F#] [F#] [Ab] [F#] [Ab]  
 
 Gb|-----------------|-----------------|-----------------|-----------------|
 Db|-----------------|-----------------|-542-------------|-----------------|
 Ab|-5---------------|-----------------|----x5-3---------|-----------------|
 Eb|-----------------|-2-------3-------|---------5-----3-|-5---5-3-5-------|

[Db] [F] [F#] [F#] [F#] [Ab] [F#] [Ab]  
 
 Gb|-----------------|-----------------|-----------------|-----------------|
 Db|-----------------|-----------------|-542-------------|-----------------|
 Ab|-5---------------|-----------------|----x5-3---------|-----------------|
 Eb|-----------------|-2-------3-------|---------5-----3-|-5---5-3-5-------|

[Db] [F] [F#] [F#] [F#] [Ab] [F#] [Ab]  
 
 Gb|-----------------|-----------------|-----------------|-----------------|
 Db|-----------------|-----------------|-542-------------|-----------------|
 Ab|-5---------------|-----------------|----x5-3---------|-----------------|
 Eb|-----------------|-2-------3-------|---------5-----3-|-5---5-3-5-------|

[Db] [F] [F#] [F#] [F#] [Ab] [F#] [Ab]  
 
 Gb|-----------------|-----------------|-----------------|-----------------|
 Db|-----------------|-----------------|-542-------------|-----------------|
 Ab|-5---5-5-5---5---|-----------------|----x5-3---------|---------------xx|
 Eb|-----------------|-2-------3-------|---------5-----3-|-5---5-3-5-------|

[Db] [F] [F#] [F#] [F#] [Ab] [F#] [Ab]  
 
 Gb|-----------------|-----------------|-----------------|-----------------|
 Db|-----------------|-----------------|-542-------------|-----------------|
 Ab|-5---5-5-5---5---|-----------------|----x5-3---------|---------------xx|
 Eb|-----------------|-2-------3-------|---------5-----3-|-5---5-3-5-------|

[Db] [F] [F#] [F#] [F#] [Ab] [F#] [Ab]  
 
 Gb|-----------------|-----------------|-----------------|-----------------|
 Db|-----------------|-----------------|-542-------------|-----------------|
 Ab|-5---5-5-5---5---|-----------------|----x5-3---------|---------------34|
 Eb|-----------------|-2-------3-------|---------5-----3-|-5---5-3-5-------|

[Db] [F] [F#] [F#] [F#] [Ab] [F#] [Ab]  
 
 Gb|-----------------|-----------------|-----------------|-----------------|
 Db|-----------------|-----------------|-542-------------|-----------------|
 Ab|-5---5-5-5---5---|-----------------|----x5-3---------|---------------x-|
 Eb|-----------------|-2-------3-------|---------5-----3-|-5---5-3-5-------|

[-----]Outro
[Db] [F] [F#] [F#] [F#] [Ab] [F#] [Ab]  
 
 Gb|-----------------|-----------------|-----------------|-----------------|
 Db|-----------------|-----------------|-542-------------|-----------------|
 Ab|-5---5-5-5---5-5-|-----------------|----x5-3---------|---------------x-|
 Eb|-----------------|-2-------3-------|---------5-----3-|-5---5-3-5-------|

[Db] [F] [F#] [F#] [F#] [Ab] [F#] [Ab]  
 
 Gb|-----------------|-----------------|-----------------|-----------------|
 Db|-----------------|-----------------|-542-------------|-----------------|
 Ab|-5---------------|-----------------|----x5-3---------|-----------------|
 Eb|-----------------|-2--2--2-3--3--3-|---------5-----3-|-5---5-3-5-------|

[Db] [F] [F#] [Ab]  
 
 Gb|-----------------|-----------------|-----------------|-----------------|
 Db|-----------------|-----------------|-----------------|-----------------|
 Ab|-5---------------|-----------------|-----------------|-----------------|
 Eb|-----------------|-2--2--2-3--3--3-|-5---------------|-----------------|

[Ab]  
 
 Gb|-----------------|
 Db|-----------------|
 Ab|-----------------|
 Eb|-55-5---5-3--5---|


Important: The song above is NOT stored on the Chordie server. The original song is hosted at www.guitartabs.cc. Chordie works as a search engine and provides on-the-fly formatting. Chordie does not index songs against artists'/composers' will. To remove this song please click here.

Text color:
Chord color:
Chord grids: 
Font size:    
Page size: 

Ab B Bb D Db E Eb F F#
Rate #1 of 3 versions

Login - add to songbook

SHARE PAGE  



You need to log in to post comments