Guitar Tabs, Chords and Lyrics
Major upgrade!! After one year development the new version of Chordie is now online! Please give feedback.


Meanstreak  AC/DC

AC/DC-Mean Streak
Blow Up Your Video (1988)
Transcribed by: playinbass1432
Email: playinbass1432@hotmail.com
Standard Tuning
Intro: (0:05)
[D#] [G#] [D#] [F] [D#] [F] [G#] [D#] [D#] [D#] [G#] [D#] [F] [D#] [F] [G#] [D#] [D#]  
 
 G|-----------------|-----------------|-----------------|-----------------|
 D|-----------------|-----------------|-----------------|-----------------|
 A|-6-------6-8-6-8-|---------65--65--|-6-------6-8-6-8-|---------65--65--|
 E|---4-5-1---------|---4-5-1---8---8-|---4-5-1---------|---4-5-1---8---8-|

[D#] [G#] [D#] [F] [D#] [F] [G#] [D#] [D#] [D#] [G#] [D#] [F] [D#] [F] [G#] [D#] [D#]  
 
 G|-----------------|-----------------|-----------------|-----------------|
 D|-----------------|-----------------|-----------------|-----------------|
 A|-6-------6-8-6-8-|---------65--65--|-6-------6-8-6-8-|---------65--65--|
 E|---4-5-1---------|---4-5-1---8---8-|---4-5-1---------|---4-5-1---8---8-|

Verse 1:
[D#] [G#] [D#] [F] [D#] [F] [G#] [D#] [D#] [D#] [G#] [D#] [F] [D#] [F] [G#] [D#] [D#]  
 
 G|-----------------|-----------------|-----------------|-----------------|
 D|-----------------|-----------------|-----------------|-----------------|
 A|-6-------6-8-6-8-|---------65--65--|-6-------6-8-6-8-|---------65--65--|
 E|---4-5-1---------|---4-5-1---8---8-|---4-5-1---------|---4-5-1---8---8-|

[D#] [G#] [D#] [F] [D#] [F] [G#] [D#] [D#] [D#] [G#] [D#] [F] [D#] [F] [G#] [D#] [D#]  
 
 G|-----------------|-----------------|-----------------|-----------------|
 D|-----------------|-----------------|-----------------|-----------------|
 A|-6-------6-8-6-8-|---------65--65--|-6-------6-8-6-8-|---------65--65--|
 E|---4-5-1---------|---4-5-1---8---8-|---4-5-1---------|---4-5-1---8---8-|

[D#] [G#] [D#] [F] [D#] [F] [G#] [D#] [D#] [D#] [G#] [D#] [F] [D#] [F] [G#] [D#] [D#]  
 
 G|-----------------|-----------------|-----------------|-----------------|
 D|-----------------|-----------------|-----------------|-----------------|
 A|-6-------6-8-6-8-|---------65--65--|-6-------6-8-6-8-|---------65--65--|
 E|---4-5-1---------|---4-5-1---8---8-|---4-5-1---------|---4-5-1---8---8-|

[D#] [G#] [D#] [F] [D#] [F] [G#] [D#] [D#] [D#] [G#] [D#] [F] [D#] [F] [G#] [D#] [D#]  
 
 G|-----------------|-----------------|-----------------|-----------------|
 D|-----------------|-----------------|-----------------|-----------------|
 A|-6-------6-8-6-8-|---------65--65--|-6-------6-8-6-8-|---------65--65--|
 E|---4-5-1---------|---4-5-1---8---8-|---4-5-1---------|---4-5-1---8---8-|

Pre Chorus 1:
[A#] [F] [Eb] [C] [A#] [F] [Eb] [C]  
 
 G|-----------------|-----------------|-----------------|-----------------|
 D|-----------------|-----------------|-----------------|-----------------|
 A|-----------------|-----8---6-------|-----------------|-----8---6-------|
 E|-6-6-6-6-6-6-6-6-|-6-6---------8---|-6-6-6-6-6-6-6-6-|-6-6---------8---|

[A#] [Ab] [F] [D#] [Db]  
 
 G|-----------------|-----------------|-----------------|-----------------|
 D|-----------------|-----------------|-----------------|-----------------|
 A|-----------------|-----------------|-6-6-6-6-6-6-6-4-|-----------------|
 E|-6-6-6-6-6-6-6-6-|-6-6-6---4---1---|-----------------|-----------------|

Chorus 1:
[F]  
 
 G|-----------------|-----------------|-----------------|-----------------|
 D|-----------------|-----------------|-----------------|-----------------|
 A|-----------------|-----------------|-----------------|-----------------|
 E|-1-1-1-1-1-1-1-1-|-1-1-1-1-1-1-1-1-|-1-1-1-1-1-1-1-1-|-1-1-1-1-1-1-1-1-|

[F]  
 
 G|-----------------|-----------------|-----------------|-----------------|
 D|-----------------|-----------------|-----------------|--------------/33|
 A|-----------------|-----------------|-----------------|-----------------|
 E|-1-1-1-1-1-1-1-1-|-1-1-1-1-1-1-1-1-|-1-1-1-1-1-1-1-1-|-1-1-1-1-1-1-1---|

Guitar Solo:
[G]  
 
 G|-----------------|-----------------|-----------------|-----------------|
 D|-----------------|-----------------|-----------------|-----------------|
 A|-----------------|-----------------|-----------------|-----------------|
 E|-3-3-3-3-3-3-3-3-|-3-3-3-3-3-3-3-3-|-3-3-3-3-3-3-3-3-|-3-3-3-3-3-3-3-3-|

[D] [C]  
 
 G|-----------------|-----------------|-----------------|-----------------|
 D|-----------------|-----------------|-----------------|-----------------|
 A|-5-5-5-5-5-5-5-5-|-5-5-5-5-5-5-5-5-|-5-5-5-5-5-5-5-5-|-5-5-5-5-5---6-7-|
 E|-----------------|-----------------|-----------------|-----------8-----|

[D#] [G#] [D#] [F] [D#] [F] [G#] [D#] [D#] [D#] [G#] [D#] [F] [D#] [F] [G#] [D#] [D#]  
 
 G|-----------------|-----------------|-----------------|-----------------|
 D|-----------------|-----------------|-----------------|-----------------|
 A|-6-------6-8-6-8-|---------65--65--|-6-------6-8-6-8-|---------65--65--|
 E|---4-5-1---------|---4-5-1---8---8-|---4-5-1---------|---4-5-1---8---8-|

Verse 2:
[D#] [G#] [D#] [F] [D#] [F] [G#] [D#] [D#] [D#] [G#] [D#] [F] [D#] [F] [G#] [D#] [D#]  
 
 G|-----------------|-----------------|-----------------|-----------------|
 D|-----------------|-----------------|-----------------|-----------------|
 A|-6-------6-8-6-8-|---------65--65--|-6-------6-8-6-8-|---------65--65--|
 E|---4-5-1---------|---4-5-1---8---8-|---4-5-1---------|---4-5-1---8---8-|

[D#] [G#] [D#] [F] [D#] [F] [G#] [D#] [D#] [D#] [G#] [D#] [F] [D#] [F] [G#] [D#] [D#]  
 
 G|-----------------|-----------------|-----------------|-----------------|
 D|-----------------|-----------------|-----------------|-----------------|
 A|-6-------6-8-6-8-|---------65--65--|-6-------6-8-6-8-|---------65--65--|
 E|---4-5-1---------|---4-5-1---8---8-|---4-5-1---------|---4-5-1---8---8-|

[D#] [G#] [D#] [F] [D#] [F] [G#] [D#] [D#] [D#] [G#] [D#] [F] [D#] [F] [G#] [D#] [D#]  
 
 G|-----------------|-----------------|-----------------|-----------------|
 D|-----------------|-----------------|-----------------|-----------------|
 A|-6-------6-8-6-8-|---------65--65--|-6-------6-8-6-8-|---------65--65--|
 E|---4-5-1---------|---4-5-1---8---8-|---4-5-1---------|---4-5-1---8---8-|

[D#] [G#] [D#] [F] [D#] [F] [G#] [D#] [D#] [D#] [G#] [D#] [F] [D#] [F] [G#] [D#] [D#]  
 
 G|-----------------|-----------------|-----------------|-----------------|
 D|-----------------|-----------------|-----------------|-----------------|
 A|-6-------6-8-6-8-|---------65--65--|-6-------6-8-6-8-|---------65--65--|
 E|---4-5-1---------|---4-5-1---8---8-|---4-5-1---------|---4-5-1---8---8-|

Pre Chorus 2:
[A#] [F] [Eb] [C] [A#] [F] [Eb] [C]  
 
 G|-----------------|-----------------|-----------------|-----------------|
 D|-----------------|-----------------|-----------------|-----------------|
 A|-----------------|-----8---6-------|-----------------|-----8---6-------|
 E|-6-6-6-6-6-6-6-6-|-6-6---------8---|-6-6-6-6-6-6-6-6-|-6-6---------8---|

[A#] [Ab] [F] [D#] [Db]  
 
 G|-----------------|-----------------|-----------------|-----------------|
 D|-----------------|-----------------|-----------------|-----------------|
 A|-----------------|-----------------|-6-6-6-6-6-6-6-4-|-----------------|
 E|-6-6-6-6-6-6-6-6-|-6-6-6---4---1---|-----------------|-----------------|
 G|-----------------|
 D|-----------------|
 A|-----------------|
 E|-----------------|

Bridge:
 
 G|-----------------|-----------------|-----------------|-----------------|
 D|-----------------|-----------------|-----------------|-----------------|
 A|-----------------|-----------------|-----------------|-----------------|
 E|-----------------|-----------------|-----------------|-----------------|

[F]  
 
 G|-----------------|-----------------|-----------------|------------------|
 D|-----------------|-----------------|-----------------|------------------|
 A|-8-8-8-8-8-8-8-8-|-8-8-8-8-8-8-8-8-|-8-8-8-8-8-8-8-8-|-8-8-8-8-8-8-8//20|
 E|-----------------|-----------------|-----------------|------------------|

Chorus 2:
[D#] [G#] [D#] [F] [D#] [F] [G#] [D#] [D#] [D#] [G#] [D#] [F] [D#] [F] [G#] [D#] [D#]  
 
 G|-----------------|-----------------|-----------------|-----------------|
 D|-----------------|-----------------|-----------------|-----------------|
 A|-6-------6-8-6-8-|---------65--65--|-6-------6-8-6-8-|---------65--65--|
 E|---4-5-1---------|---4-5-1---8---8-|---4-5-1---------|---4-5-1---8---8-|

[D#] [G#] [D#] [F] [D#] [F] [G#] [D#] [D#] [D#] [G#] [D#] [F] [D#] [F] [G#] [D#] [D#]  
 
 G|-----------------|-----------------|-----------------|-----------------|
 D|-----------------|-----------------|-----------------|-----------------|
 A|-6-------6-8-6-8-|---------65--65--|-6-------6-8-6-8-|---------65--65--|
 E|---4-5-1---------|---4-5-1---8---8-|---4-5-1---------|---4-5-1---8---8-|

Outro:
 
 G|-----------------|-----------------|-----------------|-----------------|
 D|-----------------|-----------------|-----------------|-----------------|
 A|-----------------|-----------------|-----------------|-----------------|
 E|-----------------|-----------------|-----------------|-----------------|

[F] [F]  
 
 G|-----------------|-----------------|-----------------|
 D|-----------------|-----------------|-----------------|
 A|-----------------|-----------------|-----------------|
 E|-1---111111111111|-----------------|-1---------------|


Important: The song above is NOT stored on the Chordie server. The original song is hosted at www.guitartabs.cc. Chordie works as a search engine and provides on-the-fly formatting. Chordie does not index songs against artists'/composers' will. To remove this song please click here.

Text color:
Chord color:
Chord grids: 
Font size:    
Page size: 

A# Ab C D D# Db Eb F G G#
Rate #1 of 1 versions

Jango Player

Login - add to songbook

SHARE PAGE  



You need to log in to post comments