Guitar Tabs, Chords and Lyrics
Major upgrade!! After one year development the new version of Chordie is now online! Please give feedback.


Money Made   AC/DC

 
 PM--------| PM-----------|
 |---------------------|----------------------|
 |---------------------|----------------------|
 |---------------------|----------------------|
 |-0-0-0-0-------------|-0-0-0-0--------------|
 |-5-5-5-5-5-5-5-5-5-5-|-5-5-5-5-5-5-5-5-5----|
 |-3-3-3-3-6-3-6-3-6-3-|-3-3-3-3-6-3-6-3-6----|

 


 


 [4/4] Gtr I


 

 
 PM-----------------| PM--------------------|
 |---------------------------------|--------------------------------|
 |---------------------------------|--------------------------------|
 |---------------------------------|--------------------------------|
 |-0-0-0-0-------------------------|-0-0-0-0------------------------|
 |-5-5-5-5--5---5---5---5---5---5--|-5-5-5-5--5---5---5---5---5-----|
 |-3-3-3-3--6---3---6---3---6---3--|-3-3-3-3--6---3---6---3---6-----|

 


 |


 | Gtr II


 

 
 |-3-3-3-3-(3)-(3)-(3)-(3)-(3)-(3)-|-3-3-3-3-(3)-(3)-(3)-(3)-(3)--|
 |-3-3-3-3-(3)-(3)-(3)-(3)-(3)-(3)-|-3-3-3-3-(3)-(3)-(3)-(3)-(3)--|
 |-0-0-0-0--5---0---5---0---5---0--|-0-0-0-0--5---0---5---0---5---|
 |-5-5-5-5--5---5---5---5---5---5--|-5-5-5-5--5---5---5---5---5---|
 |---------------------------------|------------------------------|
 |---------------------------------|------------------------------|

 


 


 Pre-Verse


 [4/4] Gtr I


 

 
 PM--------------| PM----------|

 


 4x


 

 
 ||------------------------------|----------------------------||
 ||o-----------------------------|---------------------------o||
 ||------------------------------|----------------------------||
 ||--0-0-0-0---------------------|-0-0-0-0--------------------||
 ||o-5-5-5-5-5-5---5-5---5---5---|-5-5-5-5-5-5---5-5---5-----o||
 ||--3-3-3-3-6-3---6-3---6---3---|-3-3-3-3-6-3---6-3---6------||

 


 |


 | Gtr II


 | 4x


 

 
 ||--3-3-3---3-----3-------3---3-|-3-3-3---3-----3-------3-3--||
 ||o-3-3-3---3-----3-------3---3-|-3-3-3---3-----3-------3-3-o||
 ||--0-0-0-3-0-----0-------0---0-|-0-0-0-3-0-----0-------0-0--||
 ||--0-----0---3-0---3-0-3-------|-0-----0---3-0---3-0-3------||
 ||o-----------------------------|---------------------------o||
 ||------------------------------|----------------------------||

 


 


 ( Tab from: http://www.guitartabs.cc/tabs/a/ac_dc/money_made_tab.html )


 Verse


 [4/4] Gtr I


 

 
 PM----------|

 


 4x


 

 
 ||--3-3-3--|--1-1-1---1---0---|-------------------||
 ||o-3-3-3--|--1-1-1---1---1---|------------------o||
 ||--0-0-0--|--2-2-2---2---0---|-2---3-------2-----||
 ||--5-5-5--|--3-3-3---3---2---|-x---x-------x-----||
 ||o--------|--------------3---|-3---3-------3----o||
 ||---------|------------------|-------------------||

 


 |


 | Gtr II


 | 4x


 

 
 ||--3-3-3--|--1-1-1---1---0---|-----1-1-1-1-1-0---||
 ||o-3-3-3--|--1-1-1---1---1---|-----1-1-1-1-1-1--o||
 ||--0-0-0--|--2-2-2---2---0---|-----2-2-2-2-2-0---||
 ||--0-0-0--|--3-3-3---3---2---|-----3-3-3-3-3-2---||
 ||o-x-x-x--|--------------3---|---------------3--o||
 ||--3-3-3--|------------------|-------------------||

 


 


 Chorus


 Gtr I


 4x


 

 
 ||--3-------3------3------3-----|-3-------3------3------3------||
 ||o-3-------3------3------3-----|-3-------3------3------3-----o||
 ||--0-------0------0------0-----|-0-------0------0------0------||
 ||--0-------0------0------0-----|-0-------0------0------0------||
 ||o-x-------x------x------x-----|-x-------x------x------x-----o||
 ||--3-------3------3------3-----|-3-------3------3------3------||

 


 |


 | Gtr II


 | 4x


 

 
 ||--3-3-3---3------3--------3-3-|-3-3-3---3------3--------3-3--||
 ||o-3-3-3---3------3--------3-3-|-3-3-3---3------3--------3-3-o||
 ||--0-0-0-3-0------0--------0-0-|-0-0-0-3-0------0--------0-0--||
 ||--0-----0----3-0----3-0-3-----|-0-----0----3-0----3-0-3------||
 ||o-----------------------------|-----------------------------o||
 ||------------------------------|------------------------------||

 


 


 Out-Chorus


 [4/4] Gtr I


 

 
 ||--1-------------------------|-0-------------------------|
 ||o-1-------------------------|-1-------------------------|
 ||--2-------------------------|-0-------------------------|
 ||--3-------------------------|-2-------------------------|
 ||o---------------------------|-3-------------------------|
 ||----------------------------|---------------------------|

 


 |


 | Gtr II


 

 
 ||--3-3-3---3-----3-------3-3-|-3-3-3---3-----3-------3-3-|
 ||o-3-3-3---3-----3-------3-3-|-3-3-3---3-----3-------3-3-|
 ||--0-0-0-3-0-----0-------0-0-|-0-0-0-3-0-----0-------0-0-|
 ||--0-----0---3-0---3-0-3-----|-0-----0---3-0---3-0-3-----|
 ||o---------------------------|---------------------------|
 ||----------------------------|---------------------------|

 


 


 [4/4] Gtr I


 

 
 |-3-------3------3------3-----|-3-------3------3------3------||
 |-3-------3------3------3-----|-3-------3------3------3-----o||
 |-0-------0------0------0-----|-0-------0------0------0------||
 |-0-------0------0------0-----|-0-------0------0------0------||
 |-x-------x------x------x-----|-x-------x------x------x-----o||
 |-3-------3------3------3-----|-3-------3------3------3------||

 


 |


 | Gtr II


 

 
 |-3-3-3---3------3--------3-3-|-3-3-3---3------3--------3-3--||
 |-3-3-3---3------3--------3-3-|-3-3-3---3------3--------3-3-o||
 |-0-0-0-3-0------0--------0-0-|-0-0-0-3-0------0--------0-0--||
 |-0-----0----3-0----3-0-3-----|-0-----0----3-0----3-0-3------||
 |-----------------------------|-----------------------------o||
 |-----------------------------|------------------------------||

 


 


 Tablature Legend


 

 
 ----------------

 


 h - hammer-on


 p - pull-off


 b - bend


 pb - pre-bend


 r - bend release (if no number after the r, then release immediately)


 /\ - slide into or out of (from/to "nowhere")


 s - legato slide


 S - shift slide


 - natural harmonic


 (n) - artificial harmonic


 n(n) - tapped harmonic


 ~ - vibrato


 tr - trill


 T - tap


 TP - trem. picking


 PM - palm muting


 \n/ - tremolo bar dip; n = amount to dip


 \n - tremolo bar down


 n/ - tremolo bar up


 /n\ - tremolo bar inverted dip


 = - hold bend; also acts as connecting device for hammers/pulls


 - volume swell (louder/softer)


 x - on rhythm slash represents muted slash


 o - on rhythm slash represents single note slash


 


 Misc Legend


 

 
 -----------


Important: The song above is NOT stored on the Chordie server. The original song is hosted at www.guitartabs.cc. Chordie works as a search engine and provides on-the-fly formatting. Chordie does not index songs against artists'/composers' will. To remove this song please click here.

This song is displayed as text-only. Transposing and tuning is only available for chordpro-songs.
Rate #1 of 3 versions

Jango Player

Login - add to songbook

SHARE PAGE  



You need to log in to post comments