Guitar Tabs, Chords and Lyrics
Major upgrade!! After one year development the new version of Chordie is now online! Please give feedback.


Night Prowler  AC/DC

AC/DC-Night Prowler
Highway to Hell (1979)
Transcribed by: playinbass1432
Email: playinbass1432@hotmail.com
Tune down 1/2 step
12/8 Time signature
Intro: (0:08)
[Ab] [Db] [B] [Db]  
 
 Gb|-------------------------|-------------------------|
 Db|-------------------------|-------------------------|
 Ab|-----------5-------------|-3-----3---5-------------|
 Eb|-5-----------------------|-------------------------|

[Eb]  
 
 Gb|-------------------------|-------------------------|
 Db|-------------------------|-------------------------|
 Ab|-------------------------|---------------------0-3-|
 Eb|-------------------------|-----------------0-3-----|

Guitar Solo 1:
[Ab] [Db] [B] [Db] [Eb]  
 
 Gb|-------------------------|-------------------------|
 Db|-------------------------|-------------------------|
 Ab|-----------5-5---5-5---5-|-3---3-3---5-5-------0-3-|
 Eb|-5---5-5-----------------|-----------------0-3-----|

[Ab] [Db] [B] [Db] [Eb]  
 
 Gb|-------------------------|-------------------------|
 Db|-------------------------|-------------------------|
 Ab|-----------5-5---5-5---5-|-3---3-3---5-5-------0-3-|
 Eb|-5---5-5-----------------|-----------------0-3-----|

[Ab] [Db] [B] [Db] [Eb]  
 
 Gb|-------------------------|-------------------------|
 Db|-------------------------|-------------------------|
 Ab|-----------5-5---5-5---5-|-3---3-3---5-5-------0-3-|
 Eb|-5---5-5-----------------|-----------------0-3-----|

[Ab] [Db] [B] [Db]  
 
 Gb|-------------------------|-------------------------|
 Db|-------------------------|-------------------------|
 Ab|-----------5-5---5-5---5-|-3-3-3-3-3-3-5-----------|
 Eb|-5---5-5-----------------|-------------------------|

Pre Verse 1:
[Ab] [Db]  
 
 Gb|-------------------------|-------------------------|
 Db|-------------------------|-------------------------|
 Ab|-----------5-5---5-5---5-|-5---5-5---5-5---5-5---5-|
 Eb|-5---5-5-----------------|-------------------------|

[Ab] [Db]  
 
 Gb|-------------------------|-------------------------|
 Db|-------------------------|-------------------------|
 Ab|-----------5-5---5-5---5-|-5---5-5---5-5---5-5---5-|
 Eb|-5---5-5-----------------|-------------------------|

Verse 1:
[Ab] [Db]  
 
 Gb|-------------------------|-------------------------|
 Db|-------------------------|-------------------------|
 Ab|-----------5-5---5-5---5-|-5---5-5---5-5---5-5---5-|
 Eb|-5---5-5-----------------|-------------------------|

[Ab] [Db]  
 
 Gb|-------------------------|-------------------------|
 Db|-------------------------|-------------------------|
 Ab|-----------5-5---5-5---5-|-5---5-5---5-5---5-5---5-|
 Eb|-5---5-5-----------------|-------------------------|

[Ab] [Db]  
 
 Gb|-------------------------|-------------------------|
 Db|-------------------------|-------------------------|
 Ab|-----------5-5---5-5---5-|-5---5-5---5-5---5-5---5-|
 Eb|-5---5-5-----------------|-------------------------|

[Ab] [Db] [Eb]  
 
 Gb|-------------------------|-------------------------|
 Db|-------------------------|-------------------------|
 Ab|-----------5-5---5-5---5-|-5---5-5---5-5-------0-3-|
 Eb|-5---5-5-----------------|-----------------0-3-----|

[Ab] [Db] [Eb]  
 
 Gb|-------------------------|-------------------------|
 Db|-------------------------|-------------------------|
 Ab|-----------5-5---5-5---5-|-5---5-5---5-5-------0-3-|
 Eb|-5---5-5-----------------|-----------------0-3-----|

[Ab] [Db] [Eb]  
 
 Gb|-------------------------|-------------------------|
 Db|-------------------------|-------------------------|
 Ab|-----------5-5---5-5---5-|-5---5-5---5-5-------0-3-|
 Eb|-5---5-5-----------------|-----------------0-3-----|

[Ab] [Db] [Eb]  
 
 Gb|-------------------------|-------------------------|
 Db|-------------------------|-------------------------|
 Ab|-----------5-5---5-5---5-|-5---5-5---5-5-------0-3-|
 Eb|-5---5-5-----------------|-----------------0-3-----|

[Ab] [Db] [Eb]  
 
 Gb|-------------------------|-------------------------|
 Db|-------------------------|-------------------------|
 Ab|-----------5-5---5-5---5-|-5---5-5---5-5-------0-3-|
 Eb|-5---5-5-----------------|-----------------0-3-----|

Chorus 1:
[Ab] [Db] [B] [Db] [Eb]  
 
 Gb|-------------------------|-------------------------|
 Db|-------------------------|-------------------------|
 Ab|-----------5-5---5-5---5-|-3---3-3---5-5-------0-3-|
 Eb|-5---5-5-----------------|-----------------0-3-----|

[Ab] [Db] [B] [Db] [Eb]  
 
 Gb|-------------------------|-------------------------|
 Db|-------------------------|-------------------------|
 Ab|-----------5-5---5-5---5-|-3---3-3---5-5-------0-3-|
 Eb|-5---5-5-----------------|-----------------0-3-----|

[Ab] [Db] [B] [Db] [Eb]  
 
 Gb|-------------------------|-------------------------|
 Db|-------------------------|-------------------------|
 Ab|-----------5-5---5-5---5-|-3---3-3---5-5-------0-3-|
 Eb|-5---5-5-----------------|-----------------0-3-----|

[Ab] [Db] [B] [Db]  
 
 Gb|-------------------------|-------------------------|
 Db|-------------------------|-------------------------|
 Ab|-----------5-5---5-5---5-|-3-3-3-3-3-3-5-5-5-5-5-5-|
 Eb|-5---5-5-----------------|-------------------------|

Guitar Solo 2:
[Ab] [Db] [B] [Db] [Eb]  
 
 Gb|-------------------------|-------------------------|
 Db|-------------------------|-------------------------|
 Ab|-----------5-5---5-5-0-5-|-3---3-3---5-5-------0-3-|
 Eb|-5---5-5-----------------|-----------------0-3-----|

[Ab] [Db] [B] [Db] [Eb]  
 
 Gb|-------------------------|-------------------------|
 Db|-------------------------|-------------------------|
 Ab|-----------5-5---5-5-0-5-|-3---3-3---5-5-------0-3-|
 Eb|-5---5-5-----------------|-----------------0-3-----|

[Ab] [Db] [B] [Db] [Eb]  
 
 Gb|-------------------------|-------------------------|
 Db|-------------------------|-------------------------|
 Ab|-----------5-5---5-5-0-5-|-3---3-3---5-5-------0-3-|
 Eb|-5---5-5-----------------|-----------------0-3-----|

[Ab] [Db] [B] [Db]  
 
 Gb|-------------------------|-------------------------|
 Db|-------------------------|-------------------------|
 Ab|-----------5-5---5-5---5-|-3-3-3-3-3-3-5-5-5-5-5-5-|
 Eb|-5---5-5-----------------|-------------------------|

Verse 2:
[Ab] [Db] [Eb]  
 
 Gb|-------------------------|-------------------------|
 Db|-------------------------|-------------------------|
 Ab|-----------5-5---5-5---5-|-5---5-5---5-5-------0-3-|
 Eb|-5---5-5-----------------|-----------------0-3-----|

[Ab] [Db] [Eb]  
 
 Gb|-------------------------|-------------------------|
 Db|-------------------------|-------------------------|
 Ab|-----------5-5---5-5---5-|-5---5-5---5-5-------0-3-|
 Eb|-5---5-5-----------------|-----------------0-3-----|

[Ab] [Db] [Eb]  
 
 Gb|-------------------------|-------------------------|
 Db|-------------------------|-------------------------|
 Ab|-----------5-5---5-5---5-|-5---5-5---5-5-------0-3-|
 Eb|-5---5-5-----------------|-----------------0-3-----|

[Ab] [Db] [Eb]  
 
 Gb|-------------------------|-------------------------|
 Db|-------------------------|-------------------------|
 Ab|-----------5-5---5-5---5-|-5---5-5---5-5-------0-3-|
 Eb|-5---5-5-----------------|-----------------0-3-----|

Chorus 2:
[Ab] [Db] [B] [Db] [Eb]  
 
 Gb|-------------------------|-------------------------|
 Db|-------------------------|-------------------------|
 Ab|-----------5-5---5-5-0-5-|-3---3-3---5-5-------0-3-|
 Eb|-5---5-5-----------------|-----------------0-3-----|

[Ab] [Db] [B] [Db] [Eb]  
 
 Gb|-------------------------|-------------------------|
 Db|-------------------------|-------------------------|
 Ab|-----------5-5---5-5---5-|-3---3-3---5-5-------0-3-|
 Eb|-5---5-5-----------------|-----------------0-3-----|

[Ab] [Db] [B] [Db] [Eb]  
 
 Gb|-------------------------|-------------------------|
 Db|-------------------------|-------------------------|
 Ab|-----------5-5---5-5---5-|-3---3-3---5-5-------0-3-|
 Eb|-5---5-5-----------------|-----------------0-3-----|

[Ab] [Db] [B] [Db]  
 
 Gb|-------------------------|-------------------------|
 Db|-------------------------|-------------------------|
 Ab|-----------5-5---5-5-0-5-|-3-3-3-3-3-3-5-5-5-5-5-5-|
 Eb|-5---5-5-----------------|-------------------------|

Guitar Solo 3:
[Ab] [Db] [B] [Db] [Eb]  
 
 Gb|-------------------------|-------------------------|
 Db|-------------------------|-------------------------|
 Ab|-----------5-5---5-5---0-|-3---3-3---5-5-------0-3-|
 Eb|-5---5-5-----------------|-----------------0-3-----|

[Ab] [Db] [B] [Db] [Eb]  
 
 Gb|-------------------------|-------------------------|
 Db|-------------------------|-------------------------|
 Ab|-----------5-5---5-5---0-|-3---3-3---5-5-------0-3-|
 Eb|-5---5-5-----------------|-----------------0-3-----|

[Ab] [Db] [B] [Db] [Eb]  
 
 Gb|-------------------------|-------------------------|
 Db|-------------------------|-------------------------|
 Ab|-----------5-5---5-5---5-|-3---3-3---5-5-------0-3-|
 Eb|-5---5-5-----------------|-----------------0-3-----|

[Ab] [Db] [B] [Db] [Eb]  
 
 Gb|-------------------------|-------------------------|
 Db|-------------------------|-------------------------|
 Ab|-----------5-5---5-5---5-|-3-3-3-3-3-3-5-5-----0-3-|
 Eb|-5---5-5-----------------|-----------------0-3-----|

[Ab] [B] [Db] [Eb]  
 
 Gb|-------------------------|-------------------------|
 Db|-------------------------|-------------------------|
 Ab|-------------------------|-3-----3---5---------0-3-|
 Eb|-5-----------------------|-----------------0-3-----|

[Ab] [B] [Db] [Eb]  
 
 Gb|-------------------------|-------------------------|
 Db|-------------------------|-------------------------|
 Ab|-------------------------|-3-----3---5---------0-3-|
 Eb|-5-----------------------|-----------------0-3-----|

[Ab] [Db] [B] [Db] [Eb]  
 
 Gb|-------------------------|-------------------------|
 Db|-------------------------|-------------------------|
 Ab|-----------5-5---5-5---0-|-3---3-3---5-5-------0-3-|
 Eb|-5---5-5-----------------|-----------------0-3-----|

[Ab] [Db] [B]  
 
 Gb|-------------------------|-------------------------|
 Db|-------------------------|-------------------------|
 Ab|-----------5-5---5-5-0-5-|-3-3-3-3-3-3-3-3-3-3-3-3-|
 Eb|-5---5-5-----------------|-------------------------|

[Db]  
 
 Gb|-------------------------|
 Db|-------------------------|
 Ab|-5-5-5-5-5-5-5-5-5-5-5-5-|
 Eb|-------------------------|

Chorus 3:
[Ab] [Db] [B] [Db] [Eb]  
 
 Gb|-------------------------|-------------------------|
 Db|-------------------------|-------------------------|
 Ab|-----------5-5---5-5-0-5-|-3---3-3---5-5-------0-3-|
 Eb|-5---5-5-----------------|-----------------0-3-----|

[Ab] [Db] [B] [Db] [Eb]  
 
 Gb|-------------------------|-------------------------|
 Db|-------------------------|-------------------------|
 Ab|-----------5-5---5-5---5-|-3---3-3---5-5-------0-3-|
 Eb|-5---5-5-----------------|-----------------0-3-----|

[Ab] [Db] [B] [Db] [Eb]  
 
 Gb|-------------------------|-------------------------|
 Db|-------------------------|-------------------------|
 Ab|-----------5-5---5-5---0-|-3---3-3---5-5-------0-3-|
 Eb|-5---5-5-----------------|-----------------0-3-----|

[Ab] [Db] [B] [Db] [Eb]  
 
 Gb|-------------------------|-------------------------|
 Db|-------------------------|-------------------------|
 Ab|-----------5-5---5-5---5-|-3---3-3---5-5-------0-3-|
 Eb|-5---5-5-----------------|-----------------0-3-----|

[Ab] [Db] [B] [Db] [Eb]  
 
 Gb|-------------------------|-------------------------|
 Db|-------------------------|-------------------------|
 Ab|-----------5-5---5-5-0-5-|-3---3-3---5-5-------0-3-|
 Eb|-5---5-5-----------------|-----------------0-3-----|

[Ab] [Db] [B] [Db] [Eb]  
 
 Gb|-------------------------|-------------------------|
 Db|-------------------------|-------------------------|
 Ab|-----------5-5---5-5-0-5-|-3---3-3---5-5-------0-3-|
 Eb|-5---5-5-----------------|-----------------0-3-----|

[Ab] [Db] [B] [Db] [Eb]  
 
 Gb|-------------------------|-------------------------|
 Db|-------------------------|-------------------------|
 Ab|-----------5-5---5-5---5-|-3---3-3---5-5-------0-3-|
 Eb|-5---5-5-----------------|-----------------0-3-----|

[Ab] [Db] [B]  
 
 Gb|-------------------------|-------------------------|
 Db|-------------------------|-------------------------|
 Ab|-----------5-5---5-5---5-|-3-3-3-3-3-3-3-3-3-3-3-3-|
 Eb|-5---5-5-----------------|-------------------------|

[Db] [Ab]  
 
 Gb|-------------------------|-------------------------|
 Db|-------------------------|-------------------------|
 Ab|-5-5-5-5-5-5-5-5-5-5-5-5-|-------------------------|
 Eb|-------------------------|-5-----------------------|


Important: The song above is NOT stored on the Chordie server. The original song is hosted at www.guitartabs.cc. Chordie works as a search engine and provides on-the-fly formatting. Chordie does not index songs against artists'/composers' will. To remove this song please click here.

Text color:
Chord color:
Chord grids: 
Font size:    
Page size: 

Ab B Db Eb
Rate #1 of 11 versions

Jango Player

Login - add to songbook

SHARE PAGE  



You need to log in to post comments