Guitar Tabs, Chords and Lyrics
Major upgrade!! After one year development the new version of Chordie is now online! Please give feedback.


Rock 'n' Roll Train  AC/DC

AC/DC-Rock 'N' Roll Train
Black Ice (2008)
Transcribed by: playinbass1432
Email: playinbass1432@hotmail.com
Hello everyone, it has been a long while since I submitted anything. I thought I would
my epic return by tabbing out this kick ass new single from AC/DC. I saw the other bass
and shook my head (no offense to the tabber, but it was really bare) and I decided to
matters into my own mitts. Not that I wasn't gonna tab it anyway but...haha. Enjoy.
Intro: (After 3 bars of guitar)
[A] [D] [A] [D] [G] [Gb] [D] [A] [A] [D] [A] [D]  
 
 G|-----------------|-----------------|-----------------|-----------------|
 D|-----------------|---5-5-5-4-4-----|-----------------|-----------------|
 A|---5---5---5-----|-------------5-5-|-5---------------|---5---5---5-----|
 E|-5---5-----------|-----------------|---5-5-5---------|-5---5-----------|

[G] [D] [A] [A] [D] [A] [D] [G] [Gb] [D]  
 
 G|-----------------|-----------------|-----------------|-----------------|
 D|---5-5-5-5-------|-----------------|-----------------|---5-5-5-5-4-4---|
 A|-----------5-5-5-|-5---------------|---5---5---5-----|---------------5-|
 E|-----------------|---5-5-5---------|-5---5-----------|-----------------|

[D] [A]  
 
 G|-----------------|-----------------|
 D|-----------------|-----------------|
 A|-5---------------|-----------------|
 E|---5-5-5---------|-----------------|

Rest through Verse 1
Pre Chorus/Chorus 1: (0:57)
(After the little power chord jingle that Mal and Ang do,
you should be able to tell when it comes in)
[D] [A] [G] [D]  
 
 G|-----------------|-----------------|-----------------|-----------------|
 D|-----------------|-----------------|-----------------|---5-5-5-5-------|
 A|-5-5-5-5-5-5-5-5-|-5-5-5-5-5-5-5-5-|-----------------|-/---------5-5-5-|
 E|-----------------|-----------------|-5-5-5-5-5-5-5-5-|-----------------|

[D] [A] [A] [G] [D] [A]  
 
 G|-----------------|-----------------|-----------------|-----------------|
 D|-----------------|-----------------|---5-5-5-5-------|-----------------|
 A|-5---------------|-----------------|/7---------5-5-5-|-5---------------|
 E|---5-5-5---------|-5-5-5-5-5-5-5-5-|-----------------|---5-5-5---------|

[A] [G] [F#] [A] [A] [D] [A] [D]  
 
 G|-----------------|-----------------|-----------------|-----------------|
 D|-----------------|-----------------|-----------------|-----------------|
 A|-----------------|-----------------|-----------------|---5---5---5-----|
 E|-5-5-5-5-5-5-5-5-|-5-3-3-3-3-2-2-2-|-2-5-5-5-5-5-5-5-|-5---5-----------|

[A] [G] [D] [A]  
 
 G|-----------------|-----------------|-----------------|-----------------|
 D|---5-5-5-5-------|-----------------|-----------------|-----------------|
 A|-----------5-5-5-|-5---------------|-----------------|-----------------|
 E|-5---------------|---5-5-5---------|-----------------|-----------------|

Pre Chorus/Chorus 2:
(Again, after the little power chord jingle)
[D] [A] [G] [D]  
 
 G|-----------------|-----------------|-----------------|-----------------|
 D|-----------------|-----------------|-----------------|---5-5-5-5-------|
 A|-5-5-5-5-5-5-5-5-|-5-5-5-5-5-5-5-5-|-----------------|-/---------5-5-5-|
 E|-----------------|-----------------|-5-5-5-5-5-5-5-5-|-----------------|

[D] [A] [A] [G] [D] [A]  
 
 G|-----------------|-----------------|-----------------|-----------------|
 D|-----------------|-----------------|---5-5-5-5-------|-----------------|
 A|-5---------------|-----------------|/7---------5-5-5-|-5---------------|
 E|---5-5-5---------|-5-5-5-5-5-5-5-5-|-----------------|---5-5-5---------|

[A] [G] [F#] [A] [A] [D] [A] [D]  
 
 G|-----------------|-----------------|-----------------|-----------------|
 D|-----------------|-----------------|-----------------|-----------------|
 A|-----------------|-----------------|-----------------|---5---5---5-----|
 E|-5-5-5-5-5-5-5-5-|-5-3-3-3-3-2-2-2-|-2-5-5-5-5-5-5-5-|-5---5-----------|

[A] [G] [D] [A]  
 
 G|-----------------|-----------------|
 D|---5-5-5-5-------|-----------------|
 A|-----------5-5-5-|-5---------------|
 E|-5---------------|---5-5-5---------|

Guitar Solo:
[G] [D] [A] [G] [D] [A]  
 
 G|-----------------|-----------------|-----------------|-----------------|
 D|-----------------|-----------------|-----------------|-----------------|
 A|-----------5-5-5-|-5---------------|-----------5-5-5-|-5---------------|
 E|---3-3-3-3-------|---5-5-5---------|---3-3-3-3-------|---5-5-5---5-5-5-|

[A] [G] [D] [A]  
 
 G|-----------------|-----------------|-----------------|-----------------|
 D|---5-5-5-5-------|-----------------|-----------------|-----------------|
 A|-----------5-5-5-|-5---------------|-----------------|-----------------|
 E|-5---------------|---5-5-5---------|-----------------|-----------------|
 G|-----------------|-----------------|
 D|-----------------|-----------------|
 A|-----------------|-----------------|
 E|-----------------|-----------------|

Verse 3
Rest for 8 bars
Bridge/Guitar Solo 2:
[A]  
 
 G|-----------------|-----------------|-----------------|-----------------|
 D|-----------------|-----------------|-----------------|-----------------|
 A|-----------------|-----------------|-----------------|-----------------|
 E|-5-5-5-5-5-5-5-5-|-5-5-5-5-5-5-5-5-|-5-5-5-5-5-5-5-5-|-5-5-5-5-5-5-5-5-|

[A] [G] [D] [A] [G] [D] [A]  
 
 G|-----------------|-----------------|-----------------|-----------------|
 D|--/5-5-5-5-------|-----------------|--/5-5-5-5-------|-----------------|
 A|-----------5-5-5-|-5---------------|-----------5-5-5-|-5---------------|
 E|-5---------------|---5-5-5-5-5-5-5-|-5---------------|---5-5-5-5-5-5-5-|

[G] [Gb] [A] [G] [Gb] [A]  
 
 G|-----------------|-----------------|-----------------|-----------------|
 D|-----------------|-----------------|-----------------|-----------------|
 A|-----------------|-----------------|-----------------|-----------------|
 E|-5-3-3-3-3-2-2-2-|-2-5-5-5-5-5-5-5-|-5-3-3-3-3-2-2-2-|-2-5-5-5-5-5-5-5-|

[G] [D] [A] [G] [D] [A]  
 
 G|-----------------|-----------------|-----------------|-----------------|
 D|-----------------|-----------------|---5-5-5-5-------|-----------------|
 A|-----------5-5-5-|-5---------------|-----------5-5-5-|-5---------------|
 E|-5-3-3-3-3-------|---5-5-5-5-5-5-5-|-5---------------|---5-5-5---------|

Chorus 3/Outro Guitar Solo:
[A] [D] [A] [D] [D] [A] [A] [D] [A] [D]  
 
 G|-----------------|-----------------|-----------------|-----------------|
 D|-----------------|-----------------|-----------------|-----------------|
 A|---5---5---5-----|-----------------|-5---------------|---5---5---5-----|
 E|-5---5-----------|-----------------|---5-5-5---------|-5---5-----------|

[G] [D] [A] [G] [D] [A]  
 
 G|-----------------|-----------------|-----------------|-----------------|
 D|--/5-5-5-5-------|-----------------|---5-5-5-5-------|-----------------|
 A|-----------5-5-5-|-5---------------|/7---------5-5-5-|-5---------------|
 E|-5---------------|---5-5-5-5-5-5-5-|-----------------|---5-5-5-5-5-5-5-|

[G] [Gb] [A] [G] [Gb] [A]  
 
 G|-----------------|-----------------|-----------------|-----------------|
 D|-----------------|-----------------|---5-5-5-5-4-4---|-----------------|
 A|-----------------|-----------------|---------------5-|-5---------------|
 E|-5-3-3-3-3-2-2-2-|-2-5-5-5-5-5-5-5-|-5---------------|---5-5-5-5-5-5-5-|

[G] [D] [A] [G] [D] [A]  
 
 G|-----------------|-----------------|-----------------|-----------------|
 D|-----------------|-----------------|-----------------|-----------------|
 A|-----------5-5-5-|-5---------------|-----------5-5-5-|-5---------------|
 E|-5-3-3-3-3-------|---5-5-5---------|-5-3-3-3-3-------|---5-5-5---5-5-5-|

[G] [D] [A]  
 
 G|-----------------|-----------------|
 D|---5-5-5-5-------|-----------------|
 A|-----------5-5-5-|-5---------------|
 E|-5---------------|---5-5-5---------|


Important: The song above is NOT stored on the Chordie server. The original song is hosted at www.guitartabs.cc. Chordie works as a search engine and provides on-the-fly formatting. Chordie does not index songs against artists'/composers' will. To remove this song please click here.

Text color:
Chord color:
Chord grids: 
Font size:    
Page size: 

A D F# G Gb
Rate #1 of 5 versions

Login - add to songbook

SHARE PAGE  




You need to log in to post comments