Guitar Tabs, Chords and Lyrics
Major upgrade!! After one year development the new version of Chordie is now online! Please give feedback.


Rocking All the Way  AC/DC

Tabbed by: Vinny A.
Album: Black Ice
Song: Rocking All The Way
Artist: AC/DC
Bassist: Cliff Williams
Intro
[G]  
 
 G|-----------------|-----------------|-----------------|-----------------|
 D|-----------------|-----------------|-----------------|-----------------|
 A|-----------------|-----------------|-----------------|-----------------|
 E|-3-3-3-3-3-3-3-3-|-3-3-3-3-3-3-3-3-|-3-3-3-3-3-3-3-3-|-3-3-3-3-3-3-3-3-|

Verse 1
[G]  
 
 G|-----------------|-----------------|-----------------|-----------------|
 D|-----------------|-----------------|-----------------|-----------------|
 A|-----------------|-----------------|-----------------|-----------------|
 E|-3-3-3-3-3-3-3-3-|-3-3-3-3-3-3-3-3-|-3-3-3-3-3-3-3-3-|-3-3-3-3-3-3-3-3-|

[G] [C] [A#G] [C] [A#]  
 
 G|-----------------|-----------------|-----------------|-----------------|
 D|-----------------|-----------------|-----------------|-----------------|
 A|-----------------|-----------------|-----------------|----3-1---3---1--|
 E|-3-3-3-3-3-3-3-3-|-3-3-3-3-3-3-3-3-|-3-3-3-3-3-3-3-3-|-3------3--------|

[C] [A#] [F] [C] [A#] [F]  
 
 G|-----------------|-----------------|-----------------|-----------------|
 D|-----------------|-----------------|-----------------|-----------------|
 A|-3-3-3-3-3-3-3-x-|-1-x-1-----------|-3-3-3-3-3-3-3-x-|-1-x-1-----------|
 E|-----------------|-------1-1-1-1-1-|-----------------|-------1-1-1-1-1-|

[C] [A#] [F] [C] [A#] [F]  
 
 G|-----------------|-----------------|-----------------|-----------------|
 D|-----------------|-----------------|-----------------|-----------------|
 A|-3-3-3-3-3-3-3-x-|-1-x-1-----------|-3-3-3-3-3-3-3-x-|-1-x-1-----------|
 E|-----------------|-------1-1-1-1-1-|-----------------|-------1-1-1-1-1-|

Pre-Chorus
[D] [E] [F] [G]  
 
 G|-----------------|-----------------|-----------------|-----------------|
 D|-----------------|-----------------|-----------------|-----------------|
 A|-5-5-5-5-5-5-5-5-|-5-5-5-5-5-5-5-5-|-5-5-5-5-5-5-5-5-|-5-5-7-7-8-8-1010|
 E|-----------------|-----------------|-----------------|-----------------|

Chorus
[G] [C] [A#G] [C] [A#] [G] [C] [A#G] [C] [A#]  
 
 G|-----------------|-----------------|-----------------|-----------------|
 D|-----------------|-----------------|-----------------|-----------------|
 A|-----------------|----3-1---3---1--|-----------------|----3-1---3---1--|
 E|-3-3-3-3-3-3-3-3-|-3------3--------|-3-3-3-3-3-3-3-3-|-3------3--------|

[G] [C] [A#G] [C] [A#] [G] [C] [A#G] [C] [A#]  
 
 G|-----------------|-----------------|-----------------|-----------------|
 D|-----------------|-----------------|-----------------|-----------------|
 A|-----------------|----3-1---3---1--|-----------------|----3-1---3---1--|
 E|-3-3-3-3-3-3-3-3-|-3------3--------|-3-3-3-3-3-3-3-3-|-3------3--------|

Verse 2
[C] [A#] [F] [C] [A#] [F]  
 
 G|-----------------|-----------------|-----------------|-----------------|
 D|-----------------|-----------------|-----------------|-----------------|
 A|-3-3-3-3-3-3-3-x-|-1-x-1-----------|-3-3-3-3-3-3-3-x-|-1-x-1-----------|
 E|-----------------|-------1-1-1-1-1-|-----------------|-------1-1-1-1-1-|

[C] [A#] [F] [C] [A#] [F]  
 
 G|-----------------|-----------------|-----------------|-----------------|
 D|-----------------|-----------------|-----------------|-----------------|
 A|-3-3-3-3-3-3-3-x-|-1-x-1-----------|-3-3-3-3-3-3-3-x-|-1-x-1-----------|
 E|-----------------|-------1-1-1-1-1-|-----------------|-------1-1-1-1-1-|

Pre-Chorus
[D] [E] [F] [F#]  
 
 G|-----------------|-----------------|-----------------|-----------------|
 D|-----------------|-----------------|-----------------|-----------------|
 A|-5-5-5-5-5-5-5-5-|-5-5-5-5-5-5-5-5-|-5-5-5-5-5-5-5-5-|-5-5-------------|
 E|-----------------|-----------------|-----------------|-----0-0-1-1-2-2-|

Chorus (Extended)
[G] [C] [A#G] [C] [A#] [G] [C] [A#G] [C] [A#]  
 
 G|-----------------|-----------------|-----------------|-----------------|
 D|-----------------|-----------------|-----------------|-----------------|
 A|-----------------|----3-1---3---1--|-----------------|----3-1---3---1--|
 E|-3-3-3-3-3-3-3-3-|-3------3--------|-3-3-3-3-3-3-3-3-|-3------3--------|

( Tab from: http://www.guitartabs.cc/tabs/a/ac_dc/rocking_all_the_way_btab_ver_2.html )
[G] [C] [A#G] [C] [A#] [G] [C] [A#G] [C] [A#]  
 
 G|-----------------|-----------------|-----------------|-----------------|
 D|-----------------|-----------------|-----------------|-----------------|
 A|-----------------|----3-1---3---1--|-----------------|----3-1---3---1--|
 E|-3-3-3-3-3-3-3-3-|-3------3--------|-3-3-3-3-3-3-3-3-|-3------3--------|

[G] [C] [A#G] [C] [A#] [G] [C] [A#G] [C] [A#]  
 
 G|-----------------|-----------------|-----------------|-----------------|
 D|-----------------|-----------------|-----------------|-----------------|
 A|-----------------|----3-1---3---1--|-----------------|----3-1---3---1--|
 E|-3-3-3-3-3-3-3-3-|-3------3--------|-3-3-3-3-3-3-3-3-|-3------3--------|

[G] [C] [A#G] [C] [A#] [G] [C] [A#G] [C] [A#]  
 
 G|-----------------|-----------------|-----------------|-----------------|
 D|-----------------|-----------------|-----------------|-----------------|
 A|-----------------|----3-1---3---1--|-----------------|----3-1---3---1--|
 E|-3-3-3-3-3-3-3-3-|-3------3--------|-3-3-3-3-3-3-3-3-|-3------3--------|

Solo
[C] [A#] [F] [C] [A#] [F]  
 
 G|-----------------|-----------------|-----------------|-----------------|
 D|-----------------|-----------------|-----------------|-----------------|
 A|-3-3-3-3-3-3-3-x-|-1-x-1-----------|-3-3-3-3-3-3-3-x-|-1-x-1-----------|
 E|-----------------|-------1-1-1-1-1-|-----------------|-------1-1-1-1-1-|

[A] [C] [G] [A] [E] [F] [F#]  
 
 G|-----------------|-----------------|-----------------|-----------------|
 D|-----------------|-----------------|-----------------|-----------------|
 A|-5-5-5-5-5-5-5-x-|-3-x-3-----------|-5-5-5-5-5-5-5-5-|-5-5-------------|
 E|-----------------|-------3-3-3-3-3-|-----------------|-----0-0-1-1-2-2-|

Chorus
[G] [C] [A#G] [C] [A#] [G] [C] [A#G] [C] [A#]  
 
 G|-----------------|-----------------|-----------------|-----------------|
 D|-----------------|-----------------|-----------------|-----------------|
 A|-----------------|----3-1---3---1--|-----------------|----3-1---3---1--|
 E|-3-3-3-3-3-3-3-3-|-3------3--------|-3-3-3-3-3-3-3-3-|-3------3--------|

[G] [C] [A#G] [C] [A#] [G]  
 
 G|-----------------|-----------------|-----------------|-----------------|
 D|-----------------|-----------------|-----------------|-----------------|
 A|-----------------|----3-1---3---1--|-----------------|-----------------|
 E|-3-3-3-3-3-3-3-3-|-3------3--------|-3-3-3-3-3-3-3-3-|-----------------|

Solo/Outro
[C] [A#]  
 
 G|-----------------|-----------------|-----------------|-----------------|
 D|-----------------|-----------------|-----------------|-----------------|
 A|-3-3-3-3-3-3-3-3-|-3-3-3-3-3-3-3-3-|-3-3-3-3-3-3-3-3-|-3-3-3-3-3-3-3-1-|
 E|-----------------|-----------------|-----------------|-----------------|

[C] [F] [D#C] [F] [D#] [C] [F] [D#C] [F] [D#]  
 
 G|-----------------|-----------------|-----------------|-----------------|
 D|-----------------|----3-1---3---1--|-----------------|----3-1---3---1--|
 A|-3-3-3-3-3-3-3-3-|-3------3--------|-3-3-3-3-3-3-3-3-|-3------3--------|
 E|-----------------|-----------------|-----------------|-----------------|

[C] [F] [D#C] [F] [D#] [C] [F] [D#C] [F] [D#]  
 
 G|-----------------|-----------------|-----------------|-----------------|
 D|-----------------|----3-1---3---1--|-----------------|----3-1---3---1--|
 A|-3-3-3-3-3-3-3-3-|-3------3--------|-3-3-3-3-3-3-3-3-|-3------3--------|
 E|-----------------|-----------------|-----------------|-----------------|

[C] [F] [D#C] [F] [D#] [C] [F] [D#C] [F] [D#]  
 
 G|-----------------|-----------------|-----------------|-----------------|
 D|-----------------|----3-1---3---1--|-----------------|----3-1---3---1--|
 A|-3-3-3-3-3-3-3-3-|-3------3--------|-3-3-3-3-3-3-3-3-|-3------3--------|
 E|-----------------|-----------------|-----------------|-----------------|

[C] [F] [D#C] [F] [D#] [C] [F] [D#C] [F] [D#]  
 
 G|-----------------|-----------------|-----------------|-----------------|
 D|-----------------|----3-1---3---1--|-----------------|----3-1---3---1--|
 A|-3-3-3-3-3-3-3-3-|-3------3--------|-3-3-3-3-3-3-3-3-|-3------3--------|
 E|-----------------|-----------------|-----------------|-----------------|

[C] [F] [D#C] [F] [D#] [C] [F] [D#C] [F] [D#]  
 
 G|-----------------|-----------------|-----------------|-----------------|
 D|-----------------|----3-1---3---1--|-----------------|----3-1---3---1--|
 A|-3-3-3-3-3-3-3-3-|-3------3--------|-3-3-3-3-3-3-3-3-|-3------3--------|
 E|-----------------|-----------------|-----------------|-----------------|

[C]  
 
 G|-----------------|
 D|-----------------|
 A|-3---------------|
 E|-----------------|


Important: The song above is NOT stored on the Chordie server. The original song is hosted at www.guitartabs.cc. Chordie works as a search engine and provides on-the-fly formatting. Chordie does not index songs against artists'/composers' will. To remove this song please click here.

Text color:
Chord color:
Chord grids: 
Font size:    
Page size: 

A A# C D D# E F F# G
Rate #1 of 2 versions

Login - add to songbook

SHARE PAGE  




You need to log in to post comments