Guitar Tabs, Chords and Lyrics
Major upgrade!! After one year development the new version of Chordie is now online! Please give feedback.


She Likes Rock 'n' Roll  AC/DC

AC/DC-She Likes Rock N Roll
Black Ice (2008)
Transcribed by: playinbass1432
Email: playinbass1432@hotmail.com
Standard Tuning
Intro:
[Db] [E] [Db] [E]  
 
 G|-----------------|-----------------|-----------------|-----------------|
 D|-----------------|-----------------|-----------------|-----------------|
 A|-----------------|-------4-5-4-7\--|-----------------|-------4-5-4-7\--|
 E|-----------------|-----------------|-----------------|-----------------|

[B] [Db] [E] [B] [B] [Db] [E] [B]  
 
 G|-----------------|-----------------|-----------------|-----------------|
 D|-----------------|-----------------|-----------------|-----------------|
 A|-------4-5-4-7\--|-----------------|-------4-5-4-7---|-----------------|
 E|-7777------------|-7777------------|-7777------------|-7777------------|

Verse 1:
[B] [Db] [E] [B] [B] [Db] [E] [B]  
 
 G|-----------------|-----------------|-----------------|-----------------|
 D|-----------------|-----------------|-----------------|-----------------|
 A|-------4-5-4-7---|-----------------|-------4-5-4-7---|-----------------|
 E|-7777------------|-7777------------|-7777------------|-7777------------|

[B] [Db] [E] [B] [B] [Db] [E] [B]  
 
 G|-----------------|-----------------|-----------------|-----------------|
 D|-----------------|-----------------|-----------------|-----------------|
 A|-------4-5-4-7---|-----------------|-------4-5-4-7---|-----------------|
 E|-7777------------|-7777------------|-7777------------|-7777------------|

[B] [Db] [E] [B] [B] [Db] [E] [B]  
 
 G|-----------------|-----------------|-----------------|-----------------|
 D|-----------------|-----------------|-----------------|-----------------|
 A|-------4-5-4-7---|-----------------|-------4-5-4-7---|-----------------|
 E|-7777------------|-7777------------|-7777------------|-7777------------|

[B] [Db] [E] [B] [B] [Db] [E] [B]  
 
 G|-----------------|-----------------|-----------------|-----------------|
 D|-----------------|-----------------|-----------------|-----------------|
 A|-------4-5-4-7---|-----------------|-------4-5-4-7\--|-----------------|
 E|-7777------------|-7777------------|-7777------------|-7777------------|

Chorus 1:
[A] [C] [D] [A] [G] [Gb]  
 
 G|-----------------|-----------------|-----------------|-----------------|
 D|-----------------|-----------------|-7-7-7-7-7-7-7-7-|-5-5-5-5-4-4-4---|
 A|-----------------|---------5-5-5-5-|-----------------|---------------7-|
 E|-5-5-5-5-5-5-5-5-|-8-8-8-8---------|-----------------|-----------------|

[A] [C] [D] [A] [G] [Gb]  
 
 G|-----------------|-----------------|-----------------|-----------------|
 D|-----------------|-----------------|-7-7-7-7-7-7-7-7-|-5-5-5-5-4-4-4---|
 A|-----------------|---------5-5-5-5-|-----------------|---------------7-|
 E|-5-5-5-5-5-5-5-5-|-8-8-8-8---------|-----------------|-----------------|

Pre Verse 2:
[Db] [E]  
 
 G|-----------------|-----------------|-----------------|-----------------|
 D|-----------------|-----------------|-----------------|-----------------|
 A|-----------------|-----------------|-----------------|-------4-5-4-7\--|
 E|-----------------|-----------------|-----------------|-----------------|

Verse 2:
[B] [Db] [E] [B] [B] [Db] [E] [B]  
 
 G|-----------------|-----------------|-----------------|-----------------|
 D|-----------------|-----------------|-----------------|-----------------|
 A|-------4-5-4-7---|-----------------|-------4-5-4-7---|-----------------|
 E|-7777------------|-7777------------|-7777------------|-7777------------|

[B] [Db] [E] [B] [B] [Db] [E] [B]  
 
 G|-----------------|-----------------|-----------------|-----------------|
 D|-----------------|-----------------|-----------------|-----------------|
 A|-------4-5-4-7---|-----------------|-------4-5-4-7---|-----------------|
 E|-7777------------|-7777------------|-7777------------|-7777------------|

Chorus 2:
[A] [C] [D] [A] [G] [Gb]  
 
 G|-----------------|-----------------|-----------------|-----------------|
 D|-----------------|-----------------|-7-7-7-7-7-7-7-7-|-5-5-5-5-4-4-4---|
 A|-----------------|---------5-5-5-5-|-----------------|---------------7-|
 E|-5-5-5-5-5-5-5-5-|-8-8-8-8---------|-----------------|-----------------|

[A] [C] [D] [A] [G] [Gb]  
 
 G|-----------------|-----------------|-----------------|-----------------|
 D|-----------------|-----------------|-7-7-7-7-7-7-7-7-|-5-5-5-5-4-4-4---|
 A|-----------------|---------5-5-5-5-|-----------------|---------------7-|
 E|-5-5-5-5-5-5-5-5-|-8-8-8-8---------|-----------------|-----------------|

Guitar Solo:
[B] [D] [E] [B] [D] [E]  
 
 G|-----------------|-----------------|-----------------|-----------------|
 D|-----------------|-----------------|-----------------|-----------------|
 A|-----------------|-5-5-5-5-7-7-7-7-|-----------------|-5-5-5-5-7-7-7-7-|
 E|-7-7-7-7-7-7-7-7-|-----------------|-7-7-7-7-7-7-7-7-|-----------------|

[B] [D] [E] [B] [D] [E]  
 
 G|-----------------|-----------------|-----------------|-----------------|
 D|-----------------|-----------------|-----------------|-----------------|
 A|-----------------|-5-5-5-5-7-7-7-7-|-----------------|-5-5-5-5-7-7-7-7-|
 E|-7-7-7-7-7-7-7-7-|-----------------|-7-7-7-7-7-7-7-7-|-----------------|

Breakdown 1:
[B]  
 
 G|-----------------|-----------------|-----------------|-----------------|
 D|-----------------|-----------------|-----------------|-----------------|
 A|-----------------|-----------------|-----------------|-----------------|
 E|-7---------------|-----------------|-----------------|-----------------|

Pre Verse 3:
 
 G|-----------------|-----------------|-----------------|-----------------|
 D|-----------------|-----------------|-----------------|-----------------|
 A|-----------------|-----------------|-----------------|-----------------|
 E|-----------------|-----------------|-----------------|-----------------|

Verse 3:
[B] [Db] [E] [B] [B] [Db] [E] [B]  
 
 G|-----------------|-----------------|-----------------|-----------------|
 D|-----------------|-----------------|-----------------|-----------------|
 A|-------4-5-4-7---|-----------------|-------4-5-4-7---|-----------------|
 E|-7777------------|-7777------------|-7777------------|-7777------------|

Chorus 2:
[A] [C] [D] [A]  
 
 G|-----------------|-----------------|-----------------|-----------------|
 D|-----------------|-----------------|-7-7-7-7-7-7-7-7-|-7-7-7-7-7-7-7-5-|
 A|-----------------|---------5-5-5-5-|-----------------|-----------------|
 E|-5-5-5-5-5-5-5-5-|-8-8-8-8---------|-----------------|-----------------|

[A] [C] [D] [A] [G] [Gb]  
 
 G|-----------------|-----------------|-----------------|-----------------|
 D|-----------------|-----------------|-7-7-7-7-7-7-7-7-|-5-5-5-5-4-4-4---|
 A|-----------------|---------5-5-5-5-|-----------------|---------------7-|
 E|-5-5-5-5-5-5-5-5-|-8-8-8-8---------|-----------------|-----------------|

Breakdown 2:
[B] [Db] [E]  
 
 G|-----------------|-----------------|-----------------|-----------------|
 D|-----------------|-----------------|-----------------|-----------------|
 A|-----------------|-----------------|-----------------|-------4-5-4-7\--|
 E|-7\--------------|-----------------|-----------------|-----------------|

Outro:
[B] [Db] [E] [B] [B] [Db] [E] [B]  
 
 G|-----------------|-----------------|-----------------|-----------------|
 D|-----------------|-----------------|-----------------|-----------------|
 A|-------4-5-4-7---|-----------------|-------4-5-4-7---|-----------------|
 E|-7777------------|-7777------------|-7777------------|-7777------------|

[B] [Db] [E] [B] [B] [Db] [E] [B]  
 
 G|-----------------|-----------------|-----------------|-----------------|
 D|-----------------|-----------------|-----------------|-----------------|
 A|-------4-5-4-7---|-----------------|-------4-5-4-7---|-----------------|
 E|-7777------------|-7777------------|-7777------------|-7777------------|

[B] [Db] [E] [B] [Db] [E] [B] [Db] [E] [B] [Db] [E]  
 
 G|-----------------|-----------------|-----------------|-----------------|
 D|-----------------|-----------------|-----------------|-----------------|
 A|-------4-5-4-7---|-------4-5-4-7---|-------4-5-4-7---|-------4-5-4-7---|
 E|-7777------------|-7777------------|-7777------------|-7777------------|

[B]  
 
 G|-----------------|
 D|-----------------|
 A|-----------------|
 E|-7---------------|


Important: The song above is NOT stored on the Chordie server. The original song is hosted at www.guitartabs.cc. Chordie works as a search engine and provides on-the-fly formatting. Chordie does not index songs against artists'/composers' will. To remove this song please click here.

Text color:
Chord color:
Chord grids: 
Font size:    
Page size: 

A B C D Db E G Gb
Rate #1 of 1 versions

Login - add to songbook

SHARE PAGE  




You need to log in to post comments