Guitar Tabs, Chords and Lyrics
Major upgrade!! After one year development the new version of Chordie is now online! Please give feedback.


Sink the Pink  AC/DC

AC/DC - SINK THE PINK
(Young/Young/Johnson)
Tabber: Mord_Wraith
E-mail: thundastruck@hotmail.com
Date: 9/2/2004
Tuning (low to high): EADGBE
Chords used:
C5 x355xx
C x3201x
Csus4 x3301x
G5 3x0033
G/B x200xx
Intro:
Guitar I (Angus)
G5*
 
 E|---------------------3---|
 B|---------------------3---|
 G|---------------------0---| *guitars I and II
 D|---3----3------------0---| hit the G5
 A|---1-/5-----3----3---x---|
 E|------------1-/5-----3---|

Guitar I
 
 E|-7-8-10-10-8-7---------------------------------------------------------|
 B|---------------10-10-8-10-6-6-6-6-6-6-8-10-8-8-8-8-8-8-8-8-8-8-8-8-8-8-|
 G|-0-0--0--0-0-0--0--0-0--0-0-0-0-0-0-0-0--0-0-0-0-0-0-0-0-0-0-0-0-0-0-0-|
 D|-----------------------------------------------------------------------|
 A|-----------------------------------------------------------------------|
 E|-----------------------------------------------------------------------|

Guitar II
 
 E|-------------------------------------------3---------------------------|
 B|-------------------------------------------3---------------------------|
 G|-------------------------------------------0---------------------------|
 D|-------------------------------------------0---------------------------|
 A|-------------------------------------------x---------------------------|
 E|-------------------------------------------3---------------------------|

Guitar I
 
 E|-7-8-10-10-8-7-----------------------------|
 B|---------------10-10-8-10-6-6-6-6-6-6-8-10-|
 G|-0-0--0--0-0-0--0--0-0--0-0-0-0-0-0-0-0--0-|
 D|-------------------------------------------|
 A|-------------------------------------------|
 E|-------------------------------------------|

Guitar II
 
 E|------3------------------------------------|
 B|------3------------------------------------|
 G|------0------------------------------------|
 D|------0------------------------------------|
 A|------x------------------------------------|
 E|------3------------------------------------|

Guitar I
 
 E|---------------------------------|
 B|-8-8-8-8-8-8-8-8-8-8-8-8-8-8-8-8-|
 G|-0-0-0-0-0-0-0-0-0-0-0-0-0-0-0-0-|
 D|---------------------------------|
 A|---------------------------------|
 E|---------------------------------|

Guitar II
 
 E|-3-------------------------------|
 B|-3-------------------------------|
 G|-0-------------------------------|
 D|-0-------------------------------|
 A|-x-------------------------------|
 E|-3-------------------------------|

Rhythm:
 
 E|---3-3-----------------3-3---|
 B|---3-3---1-1---1-1-1---3-3---|
 G|---0-0---0-0---0-0-0---0-0---| play 4 times
 D|---0-0---3-2---2-3-2---0-0---|
 A|---x-x---3-3---3-3-3---x-x---|
 E|---3-3-----------------3-3---|

Verse:
[G5] [Csus4] [C] [C] [Csus4] [C] [Csus4]  
Put your gear into fire
[G5] [Csus4] [C] [C] [Csus4] [C] [Csus4] 
Lay your bullets on the ground
( Tab from: http://www.guitartabs.cc/tabs/a/ac_dc/sink_the_pink_tab_ver_2.html )
[G5] [Csus4] [C] [C] [Csus4] [C] [Csus4] 
Turn your head to desire
[G5] [Csus4] [C] [C] [Csus4] [C] [Csus4] 
There's a woman goin' down
[C5] [C5] [G/B] [C5] [C5] [G/B] 
She says she'll rough you up, all the way
[C5] [C5] [G/B] [C5] [C5] [G/B] [C5] [C5] [G/B] [C5] 
Then she gonna spit you out, count your days
Pre-chorus:
 
 E|---------------------------------------------|
 B|------------3--------------------------------|
 G|---5--------2---------------------5----------|
 D|---5--------0---------------------5----------|
 A|---3--------------------------3-2-3----------|
 E|---------------------------------------------|

She said, "Choice is yours," casually
 
 E|-------------------------------------------|
 B|-----3-------------------------------------|
 G|-----2------------------------------3------|
 D|-----0------------------------------3-x8---|
 A|-3-2---------------------3----2-----1------|
 E|-------------------------------------------|

"So why don't you do what comes naturally?"
Chorus:
 
 E|---------------------3-3-----------------3-3---|
 B|---------------------3-3---1-1---1-1-1---3-3---|
 G|---------------------0-0---0-0---0-0-0---0-0---|
 D|---3----3------------0-0---3-2---2-3-2---0-0---|
 A|---1-/5---3----3-----x-x---3-3---3-3-3---x-x---|
 E|----------1-/5-------3-3-----------------3-3---|

Sink the pink It's all the
 
 E|---3-3-----------------|
 B|---3-3---1-1---1-1-1---|
 D|---0-0---0-0---0-0-0---|
 G|---0-0---3-2---2-3-2---|
 A|---x-x---3-3---3-3-3---|
 E|---3-3-----------------|

Fashion
Chorus (continued):
[G5] [Csus4] [C] [C] [Csus4] [C] [G5] 
Drink the drink
[G5] [Csus4] [C] [C] [Csus4] [C] [G5] 
It's old fashioned
[G5] [Csus4] [C] [G5] [Csus4] [C]  
Gimme water gimme wine
[G5] [Csus4] [C] [G5] [Csus4] [C] 
Gonna show you a good time
[G5] [Csus4] [C] [C] [Csus4] [C] [G5] [G5] [Csus4] [C] 
Sink the pink sink the pink
Guitar I
 
 E|---6-3-------------|
 B|-------3-6-5-3-----|
 G|-----------5-3-----|
 D|---------------5---|
 A|-------------------|
 E|-------------------|

Guitar II
 
 E|---6-3-------------|
 B|---6-3-3-6-5-3-----|
 G|-------3-7-5-3-----|
 D|---------------5---|
 A|-------------------|
 E|-------------------|

[---]  
Listen to the song to get what Malcolm plays under the solo and other little things I
missed. Brian Johnson (vocals) doesn't sing along with the chords very well in this
song, so some parts might be a little off.

Important: The song above is NOT stored on the Chordie server. The original song is hosted at www.guitartabs.cc. Chordie works as a search engine and provides on-the-fly formatting. Chordie does not index songs against artists'/composers' will. To remove this song please click here.

Text color:
Chord color:
Chord grids: 
Font size:    
Page size: 

C C5 Csus4 G/B G5
Rate #1 of 3 versions

Jango Player

Login - add to songbook

SHARE PAGE  




You need to log in to post comments