Guitar Tabs, Chords and Lyrics
Server problems seems to be fixed. Chordie has been experiencing problems with songs disappearing. These issues now seems to be fixed, but still verifying the fix. If you find anything strange, please email admin@chordie.com.


Smash 'n' Grab  AC/DC

AC/DC-Smash N Grab
Black Ice (2008)
Transcribed by: playinbass1432
Email: playinbass1432@hotmail.com
Standard Tuning
Intro:
[A]  
 
 G|-----------------|-----------------|-----------------|-----------------|
 D|-----------------|-----------------|-----------------|-----------------|
 A|-----------------|-----------------|-----------------|-----------------|
 E|-5-5-5-5-5-5-5-5-|-5-5-5-5-5-5-3-5-|-5-5-5-5-5-5-5-5-|-5-5-5-5-5-5-3-5-|

Verse 1:
[D] [E] [G] [A] [D] [E] [G] [A]  
 
 G|-----------------|-----------------|-----------------|-----------------|
 D|--------------5--|-----------------|--------------5--|-----------------|
 A|-5-5-5-5-5-7----7|-----------------|-5-5-5-5-5-7----7|-----------------|
 E|-----------------|-5-5-5-5-5-5-5-5-|-----------------|-5-5-5-5-5-5-5-5-|

[D] [E] [G] [A] [D] [E] [G] [A]  
 
 G|-----------------|-----------------|-----------------|-----------------|
 D|--------------5--|-----------------|-----------------|-----------------|
 A|-5-5-5-5-5-7----7|-----------------|-5-5-5-5-5-------|-----------------|
 E|-----------------|-5-5-5-5-5-5-5-5-|-----------0--3-0|-5-5-5-5-5-5-5-5-|

[A]  
 
 G|-----------------|-----------------|-----------------|-----------------|
 D|-----------------|-----------------|-----------------|-----------------|
 A|-----------------|-----------------|-----------------|-----------------|
 E|-5-5-5-5-5-5-5-5-|-5-5-5-5-5-5-3-5-|-5-5-5-5-5-5-5-5-|-5-5-5-5-5-5-3-5-|

[A]  
 
 G|-----------------|-----------------|-----------------|-----------------|
 D|-----------------|-----------------|-----------------|-----------------|
 A|-----------------|-----------------|-----------------|-----------------|
 E|-5-5-5-5-5-5-5-5-|-5-5-5-5-5-5-3-5-|-5-5-5-5-5-5-5-5-|-5-5-5-5-5-5-3-5-|

[D] [E] [G] [A] [D] [E] [G] [A]  
 
 G|-----------------|-----------------|-----------------|-----------------|
 D|--------------5--|-----------------|--------------5--|-----------------|
 A|-5-5-5-5-5-7----7|-----------------|-5-5-5-5-5-7----7|-----------------|
 E|-----------------|-5-5-5-5-5-5-5-5-|-----------------|-5-5-5-5-5-5-5-5-|

[D] [E] [G] [A] [D] [E] [G] [A]  
 
 G|-----------------|-----------------|-----------------|-----------------|
 D|-----------------|-----------------|--------------5--|-----------------|
 A|-5-5-5-5-5-------|-----------------|-5-5-5-5-5-7----7|-----------------|
 E|-----------0--3-0|-5-5-5-5-5-5-5-5-|-----------------|-5-5-5-5-5-5-5-5-|

Pre Chorus 1:
[C] [F] [D]  
 
 G|-----------------|-----------------|-----------------|-----------------|
 D|-----------------|-----------------|-----------------|--------/5-5/6-6-|
 A|-3-3-3-3-3-3-3-3-|-----------------|-5-5-5-5-5-5-5-5-|-5-5-5-5---------|
 E|-----------------|-1-1-1-1-1-1-1-1-|-----------------|-----------------|

Chorus 1:
[A] [G] [D] [A] [G] [D]  
 
 G|-----------------|-----------------|-----------------|-----------------|
 D|--------------/5-|-5-5-5-----------|---------------5-|-5-5-5-----------|
 A|-----------------|-------5-5-5-5-5-|-----------------|-------5-5-5-5---|
 E|-5-5-5-5-5-5-5---|-----------------|-5-5-5-5-5-5-5---|---------------5-|

[A] [G] [D] [C]  
 
 G|-----------------|-----------------|-----------------|-----------------|
 D|-----------------|-----------------|-----------------|-----------------|
 A|-----------------|-------5-5-5-5-5-|-3-3-3-3-3-3-3-3-|-3-3-3-3-3-------|
 E|-5-5-5-5-5-5-5-3-|-3-3-3-----------|-----------------|-----------0-3-4-|

Verse 2:
[D] [E] [G] [A] [D] [E] [G] [A]  
 
 G|-----------------|-----------------|-----------------|-----------------|
 D|--------------5--|-----------------|--------------5--|-----------------|
 A|-5-5-5-5-5-7----7|-----------------|-5-5-5-5-5-7----7|-----------------|
 E|-----------------|-5-5-5-5-5-5-5-5-|-----------------|-5-5-5-5-5-5-5-5-|

[D] [E] [G] [A] [D] [E] [G] [A]  
 
 G|-----------------|-----------------|-----------------|-----------------|
 D|-----------------|-----------------|--------------5--|-----------------|
 A|-5-5-5-5-5-------|-----------------|-5-5-5-5-5-7----7|-----------------|
 E|-----------0--3-0|-5-5-5-5-5-5-5-5-|-----------------|-5-5-5-5-5-5-5-5-|

Pre Chorus 2:
[C] [F] [D]  
 
 G|-----------------|-----------------|-----------------|-----------------|
 D|-----------------|-----------------|-----------------|-----------------|
 A|-3-3-3-3-3-3-3-3-|-----------------|-5-5-5-5-5-5-5-5-|-5-5-5-5-5-------|
 E|-----------------|-1-1-1-1-1-1-1-1-|-----------------|-----------0-3-4-|

Chorus 2:
[A] [G] [Gb] [A] [G] [D]  
 
 G|-----------------|-----------------|-----------------|-----------------|
 D|---------------5-|-5-5-5-4---4-----|---------------5-|-5-5-5-----------|
 A|-----------------|-------------7-5-|-----------------|-------5-5-5-5-5-|
 E|-5-5-5-5-5-5-5---|-----------------|-5-5-5-5-5-5-5---|-----------------|

[A] [G] [A] [C]  
 
 G|-----------------|-------2-2-2-2-2-|-----------------|-----------------|
 D|---------------5-|-5-5-5-----------|-----------------|-----------------|
 A|-----------------|-----------------|-3-3-3-3-3-3-3-3-|-3-3-3-3-3-------|
 E|-5-5-5-5-5-5-5---|-----------------|-----------------|-----------0-3-4-|

Bridge:
[A]  
 
 G|-----------------|-----------------|-----------------|-----------------|
 D|-----------------|-----------------|-----------------|-----------------|
 A|-----------------|-----------------|-----------------|-----------------|
 E|-5-5-5-5-5-5-5-5-|-5-5-5-5-5-5-3-5-|-5-5-5-5-5-5-5-5-|-5-5-5-5-5-5-3-5-|

[A]  
 
 G|-----------------|-----------------|-----------------|-----------------|
 D|-----------------|-----------------|-----------------|-----------------|
 A|-----------------|-----------------|-----------------|-----------------|
 E|-5-5-5-5-5-5-5-5-|-5-5-5-5-5-5-3-5-|-5-5-5-5-5-5-5-5-|-5-5-5-5-5-5-3-5-|

Guitar Solo:
[C] [F] [D] [G] [A]  
 
 G|-----------------|-----------------|-----------------|-----------------|
 D|-----------------|-----------------|-----------------|-----------------|
 A|-3-3-3-3-3-3-3-3-|---------------5-|-5-5-5-5-5-5-5-5-|-----------------|
 E|-----------------|-1-1-1-1-1-1-1---|-----------------|-3-3-3-3-3---5-5-|

[A] [G] [Gb] [A] [G] [D]  
 
 G|-----------------|-----------------|-----------------|-----------------|
 D|---------------5-|-5-5-5-----------|---------------5-|-5-5-5-4---4-----|
 A|-----------------|-------5-5-5-5-5-|-----------------|-------------7-5-|
 E|-5-5-5-5-5-5-5---|-----------------|-5-5-5-5-5-5-5---|-----------------|

[A] [G] [A] [C]  
 
 G|-----------------|-------2-2-2-2-2-|-----------------|-------------0-2-|
 D|---------------5-|-5-5-5-----------|-----------------|-----------4-----|
 A|-----------------|-----------------|-3-3-3-3-3-3-3-3-|-3/7-7-8-8-------|
 E|-5-5-5-5-5-5-5---|-----------------|-----------------|-----------------|

Bridge:
/ x3 \
 
 G|-----------------|-----------------|
 D|-----------------|-----------------|
 A|-----------------|-----------------|
 E|-5---------------|-----------------|

[A]  
 
 G|-----------------|-----------------|-----------------|-----------------|
 D|-----------------|-----------------|-----------------|-----------------|
 A|-----------------|-----------------|-----------------|-----------------|
 E|-5-5-5-5-5-5-5-5-|-5-5-5-5-5-5-3-5-|-5-5-5-5-5-5-5-5-|-5-5-5-5-5-5-3-5-|

[A]  
 
 G|-----------------|-----------------|-----------------|-----------------|
 D|-----------------|-----------------|-----------------|-----------------|
 A|-----------------|-----------------|-----------------|-----------------|
 E|-5-5-5-5-5-5-5-5-|-5-5-5-5-5-3-3-5-|-5-5-5-5-5-5-5-5-|-5-5-5-5-5-3-3-3-|

[A]  
 
 G|-----------------|-----------------|-----------------|-----------------|
 D|-----------------|-----------------|-----------------|-----------------|
 A|-----------------|-----------------|-----------------|-----------------|
 E|-5-5-5-5-5-5-5-5-|-5-5-5-5-5-3-3-3-|-5-5-5-5-5-5-5-5-|-5-5-5-3-3-5-3-5-|

[A] [G] [D]  
 
 G|-----------------|-----------------|-----------------|-----------------|
 D|-----------------|-----------------|-----------------|-----------------|
 A|-----------------|-----------------|-------5---------|-----------------|
 E|-5-5-5-5-5-5-5-5-|-5-5-5-5-5-3-3-5-|-5-5-3-----------|-----------------|


Important: The song above is NOT stored on the Chordie server. The original song is hosted at www.guitartabs.cc. Chordie works as a search engine and provides on-the-fly formatting. Chordie does not index songs against artists'/composers' will. To remove this song please click here.

Text color:
Chord color:
Chord grids: 
Font size:    
Page size: 

A C D E F G Gb
Rate #1 of 2 versions

Login - add to songbook

SHARE PAGE  




You need to log in to post comments