Guitar Tabs, Chords and Lyrics
Major upgrade!! After one year development the new version of Chordie is now online! Please give feedback.


Walk All Over You  AC/DC

AC/DC-Walk All Over You
Highway to Hell (1979)
Tabbed by: playinbass1432
Email: playinbass1432@hotmail.com
Standard Tuning, slightly flatted
Intro: (0:25)
[E] [G] [D] [A]  
 
 G|-----------------|-----------------|-----------------|-----------------|
 D|-----------------|-----------------|-----------------|-----------------|
 A|-----------------|-------5---------|-----------------|-----------------|
 E|-0---------------|-3----------5----|-----------------|-----------------|

[E] [G] [D] [A]  
 
 G|-----------------|-----------------|-----------------|-----------------|
 D|-----------------|-----------------|-----------------|-----------------|
 A|-----------------|-------5---------|-----------------|-----------------|
 E|-0---------------|-3----------5----|-----------------|-----------------|
 G|-----------------|-----------------|-----------------|-----------------|
 D|-----------------|-----------------|-----------------|-----------------|
 A|-----------------|-----------------|-----------------|-----------------|
 E|-----------------|-----------------|-----------------|-----------0-12\-|

Pre Verse 1:
[E] [G] [D] [A] [E] [G] [D] [A]  
 
 G|-----------------|-----------------|-----------------|-----------------|
 D|-----------------|-----------------|-----------------|-----------------|
 A|-------------5-5-|-5---------------|-------------5-5-|-5---------------|
 E|-0-0-0-3-3-3-----|---5-5-5-3-5-5-5-|-0-0-0-3-3-3-----|---5-5-5-3-5-5-5-|

[E] [G] [D] [A] [E] [G] [D] [A]  
 
 G|-----------------|-----------------|-----------------|-----------------|
 D|-----------------|-----------------|-----------------|-----------------|
 A|-------------5-5-|-5---------------|-------------5-5-|-5---------------|
 E|-0-0-0-3-3-3-----|---5-5-5-3-5-5-5-|-0-0-0-3-3-3-----|---5-5-5-3-5-3p2-|

Verse 1:
[E] [G] [D]  
 
 G|-----------------|-----------------|-----------------|-----------------|
 D|-----------------|-----------------|-----------------|-----------------|
 A|-----------------|-----------------|-----------------|---5-5-5-4h5-5-5-|
 E|-0-0-0-0-0-0-0-0-|-0-0-0-0-0-0-0-0-|-3-3-3-3-3-3-3-3-|-3---------------|

[E] [G] [D]  
 
 G|-----------------|-----------------|-----------------|-----------------|
 D|-----------------|-----------------|-----------------|-----------------|
 A|-----------------|-----------------|-----------------|---5-5-5-4h5-5-5-|
 E|-0-0-0-0-0-0-0-0-|-0-0-0-0-0-0-0-0-|-3-3-3-3-3-3-3-3-|-3---------------|

[E] [G] [D]  
 
 G|-----------------|-----------------|-----------------|-----------------|
 D|-----------------|-----------------|-----------------|-----------------|
 A|-----------------|-----------------|-----------------|---5-5-5-4h5-5-5-|
 E|-0-0-0-0-0-0-0-0-|-0-0-0-0-0-0-0-0-|-3-3-3-3-3-3-3-3-|-3---------------|
 G|-----------------|-----------------|-----------------|-----------------|
 D|-----------------|-----------------|-----------------|-----------------|
 A|-----------------|-----------------|-----------------|---4-4-5--5--5-7-|
 E|-5-5-5-5-5-5-5-5-|-5-5-5-5-5-5-5-5-|-5-5-5-5-5-5-5-5-|-5---------------|

[E] [G] [D]  
 
 G|-----------------|-----------------|-----------------|-----------------|
 D|-----------------|-----------------|-----------------|-----------------|
 A|-----------------|-----------------|-----------------|---5-5-5-4h5-5-5-|
 E|-0-0-0-0-0-0-0-0-|-0-0-0-0-0-0-0-0-|-3-3-3-3-3-3-3-3-|-3---------------|

[E] [G] [D]  
 
 G|-----------------|-----------------|-----------------|-----------------|
 D|-----------------|-----------------|-----------------|-----------------|
 A|-----------------|-----------------|-----------------|---5-5-5-4h5-5-5-|
 E|-0-0-0-0-0-0-0-0-|-0-0-0-0-0-0-0-0-|-3-3-3-3-3-3-3-3-|-3---------------|

[E] [G] [D]  
 
 G|-----------------|-----------------|-----------------|-----------------|
 D|-----------------|-----------------|-----------------|-----------------|
 A|-----------------|-------5---4-2-0-|-----------------|---5-5-5-4h5-5-5-|
 E|-0-0-0-0-0-0-0-0-|-0-0-0-----------|-3-3-3-3-3-3-3-3-|-3---------------|

[A] [A]  
 
 G|-----------------|-----------------|-----------------|
 D|-----------------|-----------------|-----------------|
 A|-----------------|-----------------|-----------------|
 E|-5---------------|-5-5-5-5-5-5-5-5-|-5-5-5-5-5-5-5-5-|

Chorus 1:
[E] [G] [D] [E] [G] [D]  
 
 G|-----------------|-----------------|-----------------|-----------------|
 D|-----------------|-----------------|-----------------|-----------------|
 A|-----------------|-------5---------|-----------------|-------5---------|
 E|-0---------------|-3---------------|-0---------------|-3---------------|

[E] [G] [D] [A]  
 
 G|-----------------|-----------------|-----------------|
 D|-----------------|-----------------|-----------------|
 A|-----------------|-------5---------|-----------------|
 E|-0---------------|-3---------------|-5---------------|

Gtr Solo 1:
[A]  
 
 G|-----------------|-----------------|
 D|-----------------|-----------------|
 A|-----------------|-----------------|
 E|-5-5-5-5-5-5-5-5-|-5-5-5-5-5-5-5-5-|

[E] [G] [D] [A] [E] [G] [D] [A]  
 
 G|-----------------|-----------------|-----------------|-----------------|
 D|-----------------|-----------------|-----------------|-----------------|
 A|-------------5-5-|-5---------------|-------------5-5-|-5---------------|
 E|-0-0-0-3-3-3-----|---5-5-5-3-5-5-5-|-0-0-0-3-3-3-----|---5-5-5-3-5-3p2-|

[E] [G] [D] [A] [E] [G] [D] [A]  
 
 G|-----------------|-----------------|-----------------|-----------------|
 D|-----------------|-----------------|-----------------|-----------------|
 A|-------------5-5-|-5---------------|-------------5-5-|-5---------------|
 E|-0-0-0-3-3-3-----|---5-5-5-3-5-5-5-|-0-0-0-3-3-3-----|---5-5-5-3-5-5-5-|

[E] [G] [D]  
 
 G|-----------------|-----------------|-----------------|-----------------|
 D|-----------------|-----------------|-----------------|-----------------|
 A|-----------------|-----------------|-----------------|---5-5-5-4h5-5-5-|
 E|-0-0-0-0-0-0-0-0-|-0-0-0-0-0-0-0-0-|-3-3-3-3-3-3-3-3-|-3---------------|

[E] [G] [D]  
 
 G|-----------------|-----------------|-----------------|-----------------|
 D|-----------------|-----------------|-----------------|-----------------|
 A|-----------------|-----------------|-----------------|---5-5-5-4h5-5-5-|
 E|-0-0-0-0-0-0-0-0-|-0-0-0-0-0-0-0-0-|-3-3-3-3-3-3-3-3-|-3---------------|

[E] [G] [D]  
 
 G|-----------------|-----------------|-----------------|-----------------|
 D|-----------------|-----------------|-----------------|-----------------|
 A|-----------------|-----------------|-----------------|---5-5-5-4h5-5-5-|
 E|-0-0-0-0-0-0-0-0-|-0-0-0-0-0-0-0-0-|-3-3-3-3-3-3-3-3-|-3---------------|

[A] [A]  
 
 G|-----------------|-----------------|-----------------|
 D|-----------------|-----------------|-----------------|
 A|-----------------|-----------------|-----------------|
 E|-5---------------|-5-5-5-5-5-5-5-5-|-5-5-5-5-5-5-5-5-|

Chorus 2:
[E] [G] [D] [E] [G] [D]  
 
 G|-----------------|-----------------|-----------------|-----------------|
 D|-----------------|-----------------|-----------------|-----------------|
 A|-----------------|-------5---------|-----------------|-------5---------|
 E|-0---------------|-3---------------|-0---------------|-3---------------|

[E] [G] [D] [A]  
 
 G|-----------------|-----------------|-----------------|
 D|-----------------|-----------------|-----------------|
 A|-----------------|-------5---------|-----------------|
 E|-0---------------|-3---------------|-5---------------|

Gtr Solo 2:
[A]  
 
 G|-----------------|-----------------|
 D|-----------------|-----------------|
 A|-----------------|-----------------|
 E|-5-5-5-5-5-5-5-5-|-5-5-5-5-5-5-5-5-|

[E] [G] [D] [A] [E] [G] [D] [A]  
 
 G|-----------------|-----------------|-----------------|-----------------|
 D|-----------------|-----------------|-----------------|-----------------|
 A|-------------5-5-|-5---------------|-------------5-5-|-5---------------|
 E|-0-0-0-3-3-3-----|---5-5-5-3-5-5-5-|-0-0-0-3-3-3-----|---5-5-5-3-5-5-5-|

[E] [G] [D] [A] [E] [G] [D] [A]  
 
 G|-----------------|-----------------|-----------------|-----------------|
 D|-----------------|-----------------|-----------------|-----------------|
 A|-------------5-5-|-5---------------|-------------5-5-|-5-------5---5-7-|
 E|-0-0-0-3-3-3-----|---5-5-5-3-5-5-5-|-0-0-0-3-3-3-----|---5-5-5---------|

[E] [G] [D] [A] [E] [G] [D] [A]  
 
 G|-----------------|-----------------|-----------------|-----------------|
 D|-----------------|-----------------|-----------------|-----------------|
 A|-------------5-5-|-5---------------|-------------5-5-|-5-----------5-7-|
 E|-0-0-0-3-3-3-----|---5-5-5-3-5-3p2-|-0-0-0-3-3-3-----|---5-5-5-3-5-----|

[E] [G] [D] [A] [E] [G] [D] [A]  
 
 G|-----------------|-----------------|-----------------|-----------------|
 D|-----------------|-----------------|-----------------|-----------------|
 A|-------------5-5-|-5---------------|-------------5-5-|-5---------------|
 E|-0-0-0-3-3-3-----|---5-5-5-3-5-5-5-|-0-0-0-3-3-3-----|---5-5-5-3-5-5-5-|

[G] [A]  
 
 G|-----------------|-----------------|-----------------|-----------------|
 D|-----------------|-----------------|-----------------|-----------------|
 A|-----------------|-----------------|-----------------|-----------------|
 E|-3-3-3-3-3-3-3-3-|-3-3-3-3-3-3-3-3-|-5-5-5-5-5-5-5-5-|-5-5-5-5-5-5-5-5-|

[G] [A] [B]  
 
 G|-----------------|-----------------|-----------------|-----------------|
 D|-----------------|-----------------|-----------------|-----------------|
 A|-----------------|-----------------|-----------------|-----------------|
 E|-3-3-3-3-3-3-3-3-|-3-3-3-3-3-3-3-3-|-5-5-5-5-5-5-5-5-|-5-5-7-7-7-7-7-7-|

[E] [E]  
 
 G|-----------------|-----------------|
 D|-----------------|-----------------|
 A|-----------------|-----------------|
 E|-0---------------|-0-----------12\-|

[E] [G] [D] [A] [E] [G] [D] [A]  
 
 G|-----------------|-----------------|-----------------|-----------------|
 D|-----------------|-----------------|-----------------|-----------------|
 A|-------------5-5-|-5---------------|-------------5-5-|-5---------------|
 E|-0-0-0-3-3-3-----|---5-5-5-3-5-5-5-|-0-0-0-3-3-3-----|---5-5-5-3-5-5-5-|

[E] [G] [D]  
 
 G|-----------------|-----------------|-----------------|-----------------|
 D|-----------------|-----------------|-----------------|-----------------|
 A|-----------------|-----------------|-----------------|---5-5-5-4h5-5-5-|
 E|-0-0-0-0-0-0-0-0-|-0-0-0-0-0-0-0-0-|-3-3-3-3-3-3-3-3-|-3---------------|

[E] [G] [D]  
 
 G|-----------------|-----------------|-----------------|-----------------|
 D|-----------------|-----------------|-----------------|-----------------|
 A|-----------------|-------5---4-2-0-|-----------------|---5-5-5-4h5-5-5-|
 E|-0-0-0-0-0-0-0-0-|-0-0-0-----------|-3-3-3-3-3-3-3-3-|-3---------------|

[E] [G] [D]  
 
 G|-----------------|-----------------|-----------------|-----------------|
 D|-----------------|-----------------|-----------------|-----------------|
 A|-----------------|-----------------|-----------------|---5-5-5-4h5-5-5-|
 E|-0-0-0-0-0-0-0-0-|-0-0-0-0-0-0-0-0-|-3-3-3-3-3-3-3-3-|-3---------------|

[A] [A]  
 
 G|-----------------|-----------------|-----------------|
 D|-----------------|-----------------|-----------------|
 A|-----------------|-----------------|-----------------|
 E|-5---------------|-5-5-5-5-5-5-5-5-|-5-5-5-5-5-5-5-5-|

[E] [G] [D] [E] [G] [D]  
 
 G|-----------------|-----------------|-----------------|-----------------|
 D|-----------------|-----------------|-----------------|-----------------|
 A|-----------------|-------5---------|-----------------|-------5---------|
 E|-0-----------0-2-|-3---------------|-0-----------0-2-|-3---------------|

[E] [G] [D]  
 
 G|-----------------|-----------------|-----------------|-----------------|
 D|-----------------|-----------------|-----------------|-----------------|
 A|-----------------|-------5---------|-----------------|-----------------|
 E|-0-----------0-2-|-3---------------|-----------------|-----------------|

Free Time:
 
 | 16th Notes--------------------------------------------------|
 G|-----------------|-----------------|-----------------|-----------------|
 D|-----------------|-----------------|-----------------|-----------------|
 A|-----------------|-----------------|-5-5-5-6-6-6-7-7-|-7-7-7-7-7-------|
 E|-0-0-0-0-0-0-0-0-|-0-0-0-0-0-0-0-0-|-----------------|-----------------|


Important: The song above is NOT stored on the Chordie server. The original song is hosted at www.guitartabs.cc. Chordie works as a search engine and provides on-the-fly formatting. Chordie does not index songs against artists'/composers' will. To remove this song please click here.

Text color:
Chord color:
Chord grids: 
Font size:    
Page size: 

A B D E G
Rate #1 of 1 versions

Login - add to songbook

SHARE PAGE  




You need to log in to post comments