Guitar Tabs, Chords and Lyrics
Server problems seems to be fixed. Chordie has been experiencing problems with songs disappearing. These issues now seems to be fixed, but still verifying the fix. If you find anything strange, please email admin@chordie.com.


Ahead of the Pack  Accept

Ahead Of The Pack
Transcribed by oosys
Accept
[Bass]  
W W W
 
 G||-------------------|-------------------|-------------------|
 D||-------------------|-------------------|-------------------|
 A||-------------------|-------------------|-------------------|
 E||-------------------|-------------------|-------------------|

W E E E E E E E E E E E Q E E E
 
 -------------------|--------------------------|-------------------------|
 -------------------|--------------------------|-------------------------|
 -------------------|--------------------------|-------------------------|
 -------------------|--0--0--0--0--0--0--0--0--|--3--2--0--5----5--3--2--|

E E E E E E E E E E E Q E E E E E E E E E E E
 
 --------------------------|-------------------------|--------------------------|
 --------------------------|-------------------------|--------------------------|
 --------------------------|-----------5----5--------|--------------------------|
 --0--0--0--0--0--0--0--0--|--3--2--0----------3--2--|--0--0--0--0--0--0--0--0--|

E E E Q E Q E E E E E E E E E Q Q E E E
 
 ------------------------|--------------------------|------------------------|
 ------------------------|--------------------------|------------------------|
 -----------3----L--3----|--------------------------|--7-------5-------------|
 --3--2--0---------------|--0--3--2--0--3--2--0--0--|---------------0--3--2--|

E E E E E E E E E E E Q E E E E E E E E E E E
 
 --------------------------|-------------------------|--------------------------|
 --------------------------|-------------------------|--------------------------|
 --------------------------|-------------------------|--------------------------|
 --0--0--0--0--0--0--0--0--|--3--2--0--5----5--3--2--|--0--0--0--0--0--0--0--0--|

E E E Q E E E E E E E E E E E E E E Q E Q
 
 -------------------------|--------------------------|------------------------|
 -------------------------|--------------------------|------------------------|
 -----------5----5--------|--------------------------|-----------3----L--3----|
 --3--2--0----------3--2--|--0--0--0--0--0--0--0--0--|--3--2--0---------------|

E E E E E E E E Q E Q E E E E E E E E E E E
 
 --------------------------|------------------------|--------------------------|
 --------------------------|------------------------|--------------------------|
 --------------------------|--7-------5----------0--|--L--0--0--0--0--0--0--0--|
 --0--3--2--0--3--2--0--0--|---------------0--3-----|--------------------------|

[E] [E] [E] [E] [E] [E] [E] [E] [E] [E] [E] [E] [E] [E] [E] [E]  
 
 --------------------------|--------------------------|
 --------------------------|--------------------------|
 --0--0--0--0--0--------0--|--L--0--0--0--0--0--0--0--|
 -----------------1--3-----|--------------------------|

[E] [E] [E] [E] [E] [E] [E] [E] [E] [E] [E] [E] [E] [E] [E] [E]  
 
 --------------------------|--------------------------|
 --------------------------|--------------------------|
 --0--0--0--0--0--------0--|--L--0--0--0--0--0--0--0--|
 -----------------1--3-----|--------------------------|

E E E E E E E E E E E E E E E E Q. Q. E E
 
 --------------------------|--------------------------|----------------------|
 --------------------------|--------------------------|----------------------|
 --0--0--0--0--0--------0--|--L--0--0--0--0--0--0--0--|----------------------|
 -----------------1--3-----|--------------------------|--1------0------3-----|

Q E Q. E E E E E E E E E E E E E E E E E E
 
 -----------------------|--------------------------|--------------------------|
 -----------------------|--------------------------|--------------------------|
 --0-----------------0--|--L--0--0--0--0--0--0--0--|--0--0--0--0--0--------0--|
 ----------0------------|--------------------------|-----------------1--3-----|

[E] [E] [E] [E] [E] [E] [E] [E] [E] [E] [E] [E] [E] [E] [E] [E]  
 
 --------------------------|--------------------------|
 --------------------------|--------------------------|
 --L--0--0--0--0--0--0--0--|--0--0--0--0-----------0--|
 --------------------------|-----------------1--3-----|

E E E E E E E E E E E Q E E E E E E E E E E E
 
 --------------------------|-------------------------|--------------------------|
 --------------------------|-------------------------|--------------------------|
 --L--0--0--0--0--0--0--0--|--0--0--0--0----------0--|--L--0--0--0--0--0--0--0--|
 --------------------------|----------------1--3-----|--------------------------|

E E E E E E E E E E E Q. Q Q E Q. Q
 
 --------------------------|-----------------------|----------------------|
 --------------------------|-----------------------|----------------------|
 --0--0--0--0--0--0--0--0--|--2--2-----2-----------|----------0------0----|
 --------------------------|-----------------------|--3-------------------|

[E] [E] [E] [E] [E] [E] [E] [E] [E] [E] [E] [E] [E] [E] [E] [E]  
 
 --------------------------|--------------------------|
 --------------------------|--------------------------|
 -----------------------0--|--L--0--0--0--0--0--0--0--|
 --3--3--3--3--3--0--3-----|--------------------------|

[E] [E] [E] [E] [E] [E] [E] [E] [E] [E] [E] [E] [E] [E] [E] [E]  
 
 --------------------------|--------------------------|
 --------------------------|--------------------------|
 --0--0--0--0--0--------0--|--L--0--0--0--0--0--0--0--|
 -----------------1--3-----|--------------------------|

[E] [E] [E] [E] [E] [E] [E] [E] [E] [E] [E] [E] [E] [E] [E] [E]  
 
 --------------------------|--------------------------|
 --------------------------|--------------------------|
 --0--0--0--0--0--------0--|--L--0--0--0--0--0--0--0--|
 -----------------1--3-----|--------------------------|

[E] [E] [E] [E] [E] [E] [E] [E] [E] [E] [E] [E] [E] [E] [E] [E]  
 
 --------------------------|--------------------------|
 --------------------------|--------------------------|
 --0--0--0--0--0--------0--|--L--0--0--0--0--0--0--0--|
 -----------------1--3-----|--------------------------|

E E E E E E E E E E E Q. Q Q E Q. Q
 
 --------------------------|-----------------------|----------------------|
 --------------------------|-----------------------|----------------------|
 --0--0--0--0--0--0--0--0--|--2--2-----2-----------|----------0------0----|
 --------------------------|-----------------------|--3-------------------|

E E E Q. Q E E E H E E E E E E E E E
 
 -----------------------|-----------------------|--------------------------|
 -----------------------|-----------------------|--------------------------|
 --2--2-----2-----------|-----------0-----------|--------------------------|
 -----------------------|--3--3--------------0--|--2--2--2--2--2--2--2--2--|

E E E E E Q. E E E E E E E E E E E E E E E E
 
 ------------------------|--------------------------|--------------------------|
 ------------------------|--------------------------|--------------------------|
 ------------------------|--2--2--2--2-----0--2--0--|--2-----0--0--L--0--0--0--|
 --2--2--2--2--2---------|--------------------------|--------------------------|

E E E E E E E E E E E E Q E E E E E E E E E E
 
 --------------------------|-------------------------|--------------------------|
 --------------------------|-------------------------|--------------------------|
 --2--2--2--2--------------|----------------------0--|--2--2--2--2-----0--2--0--|
 -----------------0--2--0--|--3-----3--2--L----2-----|--------------------------|

E E E E Q. E H. E E E E E E E E E E
 
 ------------------------|---------------------|--------------------------|
 ------------------------|---------------------|--------------------------|
 --2-----0--0------------|---------------------|--------------------------|
 ---------------------3--|--L------------L--2--|--L--2--2--2--2--2--2--2--|

[E] [E] [E] [E] [E] [E] [E] [E] [E] [E] [E] [E] [E] [E] [E] [E]  
 
 --------------------------|--------------------------|
 --------------------------|--------------------------|
 -----------------------0--|--L--0--0--0--0--0--0--0--|
 --3--2--2--3--2--2--3-----|--------------------------|

[E] [E] [E] [E] [E] [E] [E] [E] [E] [E] [E] [E] [E] [E] [E] [E]  
 
 --------------------------|--------------------------|
 --------------------------|--------------------------|
 --0--0--0--0--0--------0--|--L--0--0--0--0--0--0--0--|
 -----------------1--3-----|--------------------------|

[E] [E] [E] [E] [E] [E] [E] [E] [E] [E] [E] [E] [E] [E] [E] [E]  
 
 --------------------------|--------------------------|
 --------------------------|--------------------------|
 --0--0--0--0--0--------0--|--L--0--0--0--0--0--0--0--|
 -----------------1--3-----|--------------------------|

E E E E E E E E E E E E E E E E Q. Q. E E
 
 --------------------------|--------------------------|----------------------|
 --------------------------|--------------------------|----------------------|
 --0--0--0--0--0--------0--|--L--0--0--0--0--0--0--0--|----------------------|
 -----------------1--3-----|--------------------------|--1------0------3-----|

Q E Q. E E E E E E E E E E E E E E E E E E
 
 -----------------------|--------------------------|--------------------------|
 -----------------------|--------------------------|--------------------------|
 --0-----------------0--|--L--0--0--0--0--0--0--0--|--0--0--0--0--0--------0--|
 ----------0------------|--------------------------|-----------------1--3-----|

[E] [E] [E] [E] [E] [E] [E] [E] [E] [E] [E] [E] [E] [E] [E] [E]  
 
 --------------------------|--------------------------|
 --------------------------|--------------------------|
 --L--0--0--0--0--0--0--0--|--0--0--0--0--0--------0--|
 --------------------------|-----------------1--3-----|

E E E E E E E E E E Q E E E E E E E E E E E E
 
 --------------------------|-------------------------|--------------------------|
 --------------------------|-------------------------|--------------------------|
 --L--0--0--0--0--0--0-----|-------------------------|-----------------------0--|
 -----------------------3--|--L--3--3----3--3--3--1--|--L--1--1--0-----3--------|

W E Q Q. Q E E E Q. Q
 
 -------------------|----------------------|-----------------------|
 -------------------|----------------------|-----------------------|
 --L----------------|--2-------2-----------|-----------0------0----|
 -------------------|----------------------|--3--3-----------------|

E E E Q. Q Q E Q. E E E E E E E E E E
 
 -----------------------|-----------------------|--------------------------|
 -----------------------|-----------------------|--------------------------|
 --2--2-----2-----------|----------0------L-----|--------------------------|
 -----------------------|--3-----------------0--|--2--2--2--2--2--2--2--2--|

E E E E E Q. E E E E E E E E E E E E H
 
 ------------------------|--------------------------|-----------------------|
 ------------------------|--------------------------|-----------------------|
 ------------------------|--2--2--2--2-----0--2--0--|--2-----0--0--L--------|
 --2--2--2--2--2---------|--------------------------|-----------------------|

E E E E E E E E E E E E Q E E E E E E E E E E
 
 --------------------------|-------------------------|--------------------------|
 --------------------------|-------------------------|--------------------------|
 --2--2--2--2--------------|----------------------0--|--2--2--2--2-----0--2--0--|
 -----------------0--2--0--|--3-----3--2--L----2-----|--------------------------|

E E E E Q. E H. E E E E E E E E E E
 
 ------------------------|---------------------|--------------------------|
 ------------------------|---------------------|--------------------------|
 --2-----0--0------------|---------------------|--------------------------|
 ---------------------3--|--L------------L--2--|--L--2--2--2--2--2--2--2--|

E E E E E E E E Q Q E E E E E E E E
 
 --------------------------|------------||---------------------------|
 --------------------------|------------||*--------------------------|
 --------------------------|------------||*--------------------------|
 --3--2--2--3--2--2--3--6--|--L----4----||---3--3--3--3--3--3--3--3--|

E E E Q. Q 3x E E E E E E E E E E E E E E E E
 
 ------------------------||--------------------------|--------------------------|
 -----------------------*||--------------------------|--------------------------|
 -----------------------*||--------------------------|-----------------------0--|
 --3--3--3--6------4-----||--3--3--3--3--3--3--3--3--|--3--3--3--3--3--3--3-----|

[E] [E] [E] [E] [E] [E] [E] [E] [E] [E] [E] [E] [E] [E] [E] [E]  
 
 --------------------------|--------------------------|
 --------------------------|--------------------------|
 --L--0--0--0--0--0--0--0--|--0--0--0--0--0--------0--|
 --------------------------|-----------------1--3-----|

[E] [E] [E] [E] [E] [E] [E] [E] [E] [E] [E] [E] [E] [E] [E] [E]  
 
 --------------------------|--------------------------|
 --------------------------|--------------------------|
 --L--0--0--0--0--0--0--0--|--0--0--0--0--0--------0--|
 --------------------------|-----------------1--3-----|

[E] [E] [E] [E] [E] [E] [E] [E] [E] [E] [E] [E] [E] [E] [E] [E]  
 
 --------------------------|--------------------------|
 --------------------------|--------------------------|
 --L--0--0--0--0--0--0--0--|--0--0--0--0--0--------0--|
 --------------------------|-----------------1--3-----|

[E] [E] [E] [E] [E] [E] [E] [E] [E] [E] [E] [E] [E] [E] [E] [E]  
 
 --------------------------|--------------------------|
 --------------------------|--------------------------|
 --L--0--0--0--0--0--0--0--|--3--0--0--3--0--0--3--5--|
 --------------------------|--------------------------|

[E] [E] [E] [E] [E] [E] [E] [E] [E] [E] [E] [E] [E] [E] [E] [E]  
 
 --------------------------|--------------------------|
 --------------------------|--------------------------|
 --L--5--5--5--5--5--5--5--|--5--5--5--5--5--------5--|
 --------------------------|-----------------6--8-----|

[E] [E] [E] [E] [E] [E] [E] [E] [E] [E] [E] [E] [E] [E] [E] [E]  
 
 --------------------------|--------------------------|
 --------------------------|--------------------------|
 --L--5--5--5--5--5--5--5--|--5--5--5--5--5--------5--|
 --------------------------|-----------------6--8-----|

[E] [E] [E] [E] [E] [E] [E] [E] [E] [E] [E] [E] [E] [E] [E] [E]  
 
 --------------------------|--------------------------|
 --------------------------|--------------------------|
 --5--5--5--5--5--5--5--5--|--5--5--5--5--5--------5--|
 --------------------------|-----------------6--8-----|

[E] [E] [E] [E] [E] [E] [E] [E] [E] [E] [E] [E] [E] [E] [E] [E] [B] [B]  
 
 --------------------------|--------------------------|--------------------|
 --------------------------|--------------------------|--------------------|
 --5--5--5--5--5--5--5--5--|--5--5--5--5--5--5--5--2--|--L-----------------|
 --------------------------|--------------------------|-----------5--------|

Q. H E H H H H
 
 ---------------------|--------------------|---------------------|
 ---------------------|--------------------|---------------------|
 ---------------------|--2--------5--------|--7--------10--------|
 --3------5--------L--|--------------------|---------------------|

E E E E E E E E E E H. E E E E E E E E
 
 --------------------------|---------------------|--------------------------|
 --------------------------|---------------------|--------------------------|
 --------------------------|---------------------|--2--2--2--2-----0--2--0--|
 --2--2--2--2--2--2--2--2--|--2------------------|--------------------------|

[E] [E] [E] [E] [B] [E] [E] [E] [E] [E] [E] [E] [E] [E] [E] [E] [E] [B]  
 
 -----------------------|--------------------------|-----------------------|
 -----------------------|--------------------------|-----------------------|
 --2-----0--0--L--------|--2--2--2--2--------------|-----------------------|
 -----------------------|-----------------0--2--0--|--3-----3--2--L--------|

E E E E E E E E E E E E E E E E E H. E
 
 --------------------------|--------------------------|---------------------|
 --------------------------|--------------------------|---------------------|
 --2--2--2--2-----0--2--0--|--2-----0--0--0--0--0--0--|--2---------------4--|
 --------------------------|--------------------------|---------------------|

[E] [E] [E] [E] [E] [E] [E] [E] [E] [E] [E] [E] [E] [E] [E] [E]  
 
 --------------------------|--------------------------|
 --------------------------|--------------------------|
 --L--4--4--4--4--2--4--2--|--4-----2--2--L--2--2--2--|
 --------------------------|--------------------------|

[E] [E] [E] [E] [E] [E] [E] [E] [E] [E] [E] [E] [B] [E] [E] [E] [E] [E] [E] [E] [E]  
 
 --------------------------|-----------------------|--------------------------|
 --------------------------|-----------------------|--------------------------|
 --4--4--4--4--------------|-----------------------|--4--4--4--4-----2--4--2--|
 -----------------0--4--2--|--5-----5--4--L--------|--------------------------|

E E E E H E H. E E E E Q E E E
 
 -----------------------|---------------------|-------------------------|
 -----------------------|---------------------|-------------------------|
 --4-----2--2--L--------|--4---------------6--|--L--6--6--6----4--6--4--|
 -----------------------|---------------------|-------------------------|

[E] [E] [E] [E] [B] [E] [E] [E] [E] [B]  
 
 -----------------------|-----------------------||
 -----------------------|-----------------------||
 --6-----4--4--L--------|--6--6--6--6-----------||
 -----------------------|-----------------------||

Duration Legend
 
 ---------------

W - whole
H - half
Q - quarter
E - 8th
S - 16th
T - 32nd
X - 64th
. - note dotted
|-n-| - n-tuplets
Tablature Legend
 
 ----------------

L - tied note
x - dead note
g - grace note
(n) - ghost note
> - accentuded note
NH - natural harmonic
AH - artificial harmonic
TH - tapped harmonic
SH - semi harmonic
PH - pitch harmonic
h - hammer on
p - pull off
b - bend
br - bendRelease
pb - preBend
pbr - preBendRelease
brb - bendReleaseBend
\n/ - tremolo bar dip
\n - tremolo bar dive
-/n - tremolo bar Release up
/n\ - tremolo bar inverted dip
/n - tremolo bar return
-\n - tremolo bar Release down
S - shift slide
s - legato slide
/ - slide into from below or out of upwards
\ - slide into from above or out of downwards
~ - vibrato
W - wide vibrato
tr - trill
TP - tremolo picking
T - tapping
S - slap
P - pop
< - fade in
^ - brush up
v - brush down

Important: The song above is NOT stored on the Chordie server. The original song is hosted at www.guitartabs.cc. Chordie works as a search engine and provides on-the-fly formatting. Chordie does not index songs against artists'/composers' will. To remove this song please click here.

Text color:
Chord color:
Chord grids: 
Font size:    
Page size: 

B E
Rate #1 of 1 versions

Login - add to songbook

SHARE PAGE  



You need to log in to post comments