Guitar Tabs, Chords and Lyrics
Server problems seems to be fixed. Chordie has been experiencing problems with songs disappearing. These issues now seems to be fixed, but still verifying the fix. If you find anything strange, please email admin@chordie.com.


Aiming High  Accept

Aiming High
Accept
[Bass]Transcribed by emad
W W W
 
 G||-------------------|-------------------|-------------------|
 D||-------------------|-------------------|-------------------|
 A||-------------------|-------------------|-------------------|
 E||-------------------|-------------------|-------------------|

W W W W
 
 -------------------|-------------------|-------------------|-------------------|
 -------------------|-------------------|-------------------|-------------------|
 -------------------|--7----------------|--L----------------|--L----------------|
 -------------------|--5----------------|--L----------------|--L----------------|

W E E E E E E E E E E E E E E E E
 
 -------------------|--------------------------|--------------------------|
 -------------------|--------------------------|--------------------------|
 --7----------------|--------------------------|--------------------------|
 --0----------------|--5--5--5--5--5--5--5--5--|--5--5--5--5--5--5--5--5--|

[E] [E] [E] [E] [E] [E] [E] [E] [E] [E] [E] [E] [E] [E] [E] [E]  
 
 --------------------------|--------------------------|
 --------------------------|--------------------------|
 --------------------------|--------------------------|
 --5--5--5--5--5--5--5--5--|--0--0--0--0--0--0--0--0--|

[E] [E] [E] [E] [E] [E] [E] [E] [E] [E] [E] [E] [E] [E] [E] [E]  
 
 --------------------------|--------------------------|
 --------------------------|--------------------------|
 --------------------------|--------------------------|
 --5--5--5--5--5--5--5--5--|--5--5--5--5--5--5--5--5--|

E E E E E E E E W E E E E E E E E
 
 --------------------------|-------------------|--------------------------|
 --------------------------|-------------------|--------------------------|
 --------------------------|--7----------------|--5--5--5--5--5--5--5--5--|
 --5--5--5--5--5--5--1--1--|--0----------------|--------------------------|

[E] [E] [E] [E] [E] [E] [E] [E] [E] [E] [E] [E] [E] [E] [E] [E]  
 
 --------------------------|--------------------------|
 --------------------------|--------------------------|
 --5--5--5--5--5--5--5--5--|--5--5--5--5--5--5--5--5--|
 --------------------------|--------------------------|

[E] [E] [E] [E] [E] [E] [E] [E] [E] [E] [E] [E] [E] [E] [E] [E]  
 
 --------------------------|--------------------------|
 --------------------------|--------------------------|
 --5--5--5--5--5--5--5--5--|--1--1--1--1--1--1--1--1--|
 --------------------------|--------------------------|

[E] [E] [E] [E] [E] [E] [E] [E] [E] [E] [E] [E] [E] [E] [E] [E]  
 
 --------------------------|--------------------------|
 --------------------------|--------------------------|
 --1--1--1--1--1--1--1--1--|--5--5--5--5--5--5--5--5--|
 --------------------------|--------------------------|

[E] [E] [E] [E] [E] [E] [E] [E] [E] [E] [E] [E] [E] [E] [E] [E]  
 
 --------------------------|--------------------------|
 --------------------------|--------------------------|
 --5--5--5--5--5--5--5--5--|--5--5--5--5--5--5--5--5--|
 --------------------------|--------------------------|

[E] [E] [E] [E] [E] [E] [E] [E] [E] [E] [E] [E] [E] [E] [E] [E]  
 
 --------------------------|--------------------------|
 --------------------------|--------------------------|
 --5--5--5--5--5--5--5--5--|--5--5--5--5--5--5--5--5--|
 --------------------------|--------------------------|

[E] [E] [E] [E] [E] [E] [E] [E] [E] [E] [E] [E] [E] [E] [E] [E]  
 
 --------------------------|--------------------------|
 --------------------------|--------------------------|
 --5--5--5--5--5--5--5--5--|--1--1--1--1--1--1--1--1--|
 --------------------------|--------------------------|

E E E E E E E E Q. Q. Q E E E E E E E E
 
 --------------------------|---------------------|--------------------------|
 --------------------------|---------------------|--------------------------|
 --1--1--1--1--1--1--1--1--|----------------3----|--3--3--3--3--3--3--3--3--|
 --------------------------|--1------1-----------|--------------------------|

[E] [E] [E] [E] [E] [E] [E] [E] [E] [E] [E] [E] [E] [E] [E] [E]  
 
 --------------------------|--------------------------|
 --------------------------|--------------------------|
 --------------------------|--------------------------|
 --5--5--5--5--5--5--5--5--|--5--5--5--5--5--5--5--5--|

[E] [E] [E] [E] [E] [E] [E] [E] [E] [E] [E] [E] [E] [E] [E] [E]  
 
 --------------------------|--------------------------|
 --------------------------|--------------------------|
 --------------------------|--------------------------|
 --5--5--5--5--5--5--5--5--|--0--0--0--0--0--0--0--0--|

[E] [E] [E] [E] [E] [E] [E] [E] [E] [E] [E] [E] [E] [E] [E] [E]  
 
 --------------------------|--------------------------|
 --------------------------|--------------------------|
 --------------------------|--------------------------|
 --5--5--5--5--5--5--5--5--|--5--5--5--5--5--5--5--5--|

E E E E E E E E W E E E E E E E E
 
 --------------------------|-------------------|--------------------------|
 --------------------------|-------------------|--------------------------|
 --------------------------|--7----------------|--5--5--5--5--5--5--5--5--|
 --5--5--5--5--5--5--1--1--|--0----------------|--------------------------|

[E] [E] [E] [E] [E] [E] [E] [E] [E] [E] [E] [E] [E] [E] [E] [E]  
 
 --------------------------|--------------------------|
 --------------------------|--------------------------|
 --5--5--5--5--5--5--5--5--|--5--5--5--5--5--5--5--5--|
 --------------------------|--------------------------|

[E] [E] [E] [E] [E] [E] [E] [E] [E] [E] [E] [E] [E] [E] [E] [E]  
 
 --------------------------|--------------------------|
 --------------------------|--------------------------|
 --5--5--5--5--5--5--5--5--|--1--1--1--1--1--1--1--1--|
 --------------------------|--------------------------|

[E] [E] [E] [E] [E] [E] [E] [E] [E] [E] [E] [E] [E] [E] [E] [E]  
 
 --------------------------|--------------------------|
 --------------------------|--------------------------|
 --1--1--1--1--1--1--1--1--|--5--5--5--5--5--5--5--5--|
 --------------------------|--------------------------|

[E] [E] [E] [E] [E] [E] [E] [E] [E] [E] [E] [E] [E] [E] [E] [E]  
 
 --------------------------|--------------------------|
 --------------------------|--------------------------|
 --5--5--5--5--5--5--5--5--|--5--5--5--5--5--5--5--5--|
 --------------------------|--------------------------|

[E] [E] [E] [E] [E] [E] [E] [E] [E] [E] [E] [E] [E] [E] [E] [E]  
 
 --------------------------|--------------------------|
 --------------------------|--------------------------|
 --5--5--5--5--5--5--5--5--|--5--5--5--5--5--5--5--5--|
 --------------------------|--------------------------|

[E] [E] [E] [E] [E] [E] [E] [E] [E] [E] [E] [E] [E] [E] [E] [E]  
 
 --------------------------|--------------------------|
 --------------------------|--------------------------|
 --5--5--5--5--5--5--5--5--|--1--1--1--1--1--1--1--1--|
 --------------------------|--------------------------|

E E E E E E E E Q. Q. Q H Q Q
 
 --------------------------|---------------------|---------------------|
 --------------------------|---------------------|---------------------|
 --1--1--1--1--1--1--1--1--|----------------3----|-----------3----3----|
 --------------------------|--1------1-----------|---------------------|

E E E E E E E E E E E E Q Q E E E E E E E E
 
 --------------------------|------------------------|--------------------------|
 --------------------------|------------------------|--------------------------|
 --5--5--5--5--5--5--5--5--|--5--5--5--5--3----3----|--5--5--5--5--5--5--5--5--|
 --------------------------|------------------------|--------------------------|

[E] [E] [E] [E] [E] [E] [E] [E] [E] [E] [E] [E] [E] [E] [E] [E]  
 
 --------------------------|--------------------------|
 --------------------------|--------------------------|
 --5--5--5--5--5--5--5--5--|--1--1--1--1--1--1--1--1--|
 --------------------------|--------------------------|

E E E E E E E E E E E E E E Q E E E E Q Q
 
 --------------------------|-------------------------|------------------------|
 --------------------------|-------------------------|------------------------|
 --1--1--1--1--1--1--1--1--|--------------------3----|--3--3--3--3--3----3----|
 --------------------------|--1--1--1--1--1--1-------|------------------------|

E E E E E E E E E E E E Q Q E E E E E E E E
 
 --------------------------|------------------------|--------------------------|
 --------------------------|------------------------|--------------------------|
 --5--5--5--5--5--5--5--5--|--5--5--5--5--3----3----|--5--5--5--5--5--5--5--5--|
 --------------------------|------------------------|--------------------------|

[E] [E] [E] [E] [E] [E] [E] [E] [E] [E] [E] [E] [E] [E] [E] [E]  
 
 --------------------------|--------------------------|
 --------------------------|--------------------------|
 --5--5--5--5--5--5--5--5--|--1--1--1--1--1--1--1--1--|
 --------------------------|--------------------------|

E E E E E E E E E E E E E E Q E E E E E E E E
 
 --------------------------|-------------------------|--------------------------|
 --------------------------|-------------------------|--------------------------|
 --1--1--1--1--1--1--1--1--|--------------------3----|--3--3--3--3--3--3--3--3--|
 --------------------------|--1--1--1--1--1--1-------|--------------------------|

Q. Q. Q Q E E E E E E E E E E E E E E
 
 ---------------------|-------------------------|--------------------------|
 ---------------------|-------------------------|--------------------------|
 --3------3-----------|-------x--x--x--x--x--x--|--5--5--5--5--5--5--5--5--|
 ----------------3----|--L----x--x--x--x--x--x--|--------------------------|

[E] [E] [E] [E] [E] [E] [E] [E] [E] [E] [E] [E] [E] [E] [E] [E]  
 
 --------------------------|--------------------------|
 --------------------------|--------------------------|
 --5--5--5--5--5--5--5--5--|--5--5--5--5--5--5--5--5--|
 --------------------------|--------------------------|

[E] [E] [E] [E] [E] [E] [E] [E] [E] [E] [E] [E] [E] [E] [E] [E]  
 
 --------------------------|--------------------------|
 --------------------------|--------------------------|
 --5--5--5--5--5--5--5--5--|--1--1--1--1--1--1--1--1--|
 --------------------------|--------------------------|

[E] [E] [E] [E] [E] [E] [E] [E] [E] [E] [E] [E] [E] [E] [E] [E]  
 
 --------------------------|--------------------------|
 --------------------------|--------------------------|
 --1--1--1--1--1--1--1--1--|--5--5--5--5--5--5--5--5--|
 --------------------------|--------------------------|

[E] [E] [E] [E] [E] [E] [E] [E] [E] [E] [E] [E] [E] [E] [E] [E]  
 
 --------------------------|--------------------------|
 --------------------------|--------------------------|
 --5--5--5--5--5--5--5--5--|--5--5--5--5--5--5--5--5--|
 --------------------------|--------------------------|

[E] [E] [E] [E] [E] [E] [E] [E] [E] [E] [E] [E] [E] [E] [E] [E]  
 
 --------------------------|--------------------------|
 --------------------------|--------------------------|
 --5--5--5--5--5--5--5--5--|--5--5--5--5--5--5--5--5--|
 --------------------------|--------------------------|

[E] [E] [E] [E] [E] [E] [E] [E] [E] [E] [E] [E] [E] [E] [E] [E]  
 
 --------------------------|--------------------------|
 --------------------------|--------------------------|
 --5--5--5--5--5--5--5--5--|--1--1--1--1--1--1--1--1--|
 --------------------------|--------------------------|

E E E E E E E E Q. Q. Q H Q Q
 
 --------------------------|---------------------|---------------------|
 --------------------------|---------------------|---------------------|
 --1--1--1--1--1--1--1--1--|----------------3----|-----------3----3----|
 --------------------------|--1------1-----------|---------------------|

E E E E E E E E E E E E Q Q E E E E E E E E
 
 --------------------------|------------------------|--------------------------|
 --------------------------|------------------------|--------------------------|
 --5--5--5--5--5--5--5--5--|--5--5--5--5--3----3----|--5--5--5--5--5--5--5--5--|
 --------------------------|------------------------|--------------------------|

[E] [E] [E] [E] [E] [E] [E] [E] [E] [E] [E] [E] [E] [E] [E] [E]  
 
 --------------------------|--------------------------|
 --------------------------|--------------------------|
 --5--5--5--5--5--5--5--5--|--1--1--1--1--1--1--1--1--|
 --------------------------|--------------------------|

E E E E E E E E E E E E E E Q E E E E Q Q
 
 --------------------------|-------------------------|------------------------|
 --------------------------|-------------------------|------------------------|
 --1--1--1--1--1--1--1--1--|--------------------3----|--3--3--3--3--3----3----|
 --------------------------|--1--1--1--1--1--1-------|------------------------|

E E E E E E E E E E E E Q Q E E E E E E E E
 
 --------------------------|------------------------|--------------------------|
 --------------------------|------------------------|--------------------------|
 --5--5--5--5--5--5--5--5--|--5--5--5--5--3----3----|--5--5--5--5--5--5--5--5--|
 --------------------------|------------------------|--------------------------|

[E] [E] [E] [E] [E] [E] [E] [E] [E] [E] [E] [E] [E] [E] [E] [E]  
 
 --------------------------|--------------------------|
 --------------------------|--------------------------|
 --5--5--5--5--5--5--5--5--|--1--1--1--1--1--1--1--1--|
 --------------------------|--------------------------|

E E E E E E E E E E E E E E Q W
 
 --------------------------|-------------------------|-------------------|
 --------------------------|-------------------------|-------------------|
 --1--1--1--1--1--1--1--1--|--------------------3----|--L----------------|
 --------------------------|--1--1--1--1--1--1-------|-------------------|

[E] [E] [E] [E] [E] [E] [E] [E] [E] [E] [E] [E] [E] [E] [E] [E]  
 
 --------------------------|--------------------------|
 --------------------------|--------------------5--4--|
 --------------------------|--------------3--5--------|
 --0--0--0--0--0--0--0--0--|--0--0--0--0--------------|

[E] [E] [E] [E] [E] [E] [E] [E] [E] [E] [E] [E] [E] [E] [E] [E]  
 
 --------------------------|--------------------------|
 --------------------------|--------------------5--4--|
 --------------------------|--------------3--5--------|
 --0--0--0--0--0--0--0--0--|--0--0--0--0--------------|

[E] [E] [E] [E] [E] [E] [E] [E] [E] [E] [E] [E] [E] [E] [E] [E]  
 
 --------------------------|--------------------------|
 --------------------------|--------------------------|
 --3--3--3--3--3--3--3--3--|--3--3--3--3--3--3--3--3--|
 --------------------------|--------------------------|

[E] [E] [E] [E] [E] [E] [E] [E] [E] [E] [E] [E] [E] [E] [E] [E]  
 
 --------------------------|--------------------------|
 --------------------------|--------------------5--4--|
 --------------------------|--------------3--5--------|
 --3--3--3--3--3--3--3--3--|--2--2--2--2--------------|

[E] [E] [E] [E] [E] [E] [E] [E] [E] [E] [E] [E] [E] [E] [E] [E]  
 
 --------------------------|--------------------------|
 --------------------------|--------------------5--4--|
 --------------------------|--------------3--5--------|
 --0--0--0--0--0--0--0--0--|--0--0--0--0--------------|

[E] [E] [E] [E] [E] [E] [E] [E] [E] [E] [E] [E] [E] [E] [E] [E]  
 
 --------------------------|--------------------------|
 --------------------------|--------------------5--4--|
 --------------------------|--------------3--5--------|
 --0--0--0--0--0--0--0--0--|--0--0--0--0--------------|

[E] [E] [E] [E] [E] [E] [E] [E] [E] [E] [E] [E] [E] [E] [E] [E]  
 
 --------------------------|--------------------------|
 --------------------------|--------------------------|
 --3--3--3--3--3--3--3--3--|--3--3--3--3--3--3--3--3--|
 --------------------------|--------------------------|

[E] [E] [E] [E] [E] [E] [E] [E] [E] [E] [E] [E] [E] [E] [E] [E]  
 
 --------------------------|--------------------------|
 --------------------------|--------------------5--4--|
 --------------------------|--------------3--5--------|
 --3--3--3--3--3--3--3--3--|--2--2--2--2--------------|

[E] [E] [E] [E] [E] [E] [E] [E] [E] [E] [E] [E] [E] [E] [E] [E]  
 
 --------------------------|--------------------------|
 --------------------------|--------------------5--4--|
 --------------------------|--------------3--5--------|
 --0--0--0--0--0--0--0--0--|--0--0--0--0--------------|

[E] [E] [E] [E] [E] [E] [E] [E] [E] [E] [E] [E] [E] [E] [E] [E]  
 
 --------------------------|--------------------------|
 --------------------------|--------------------5--4--|
 --------------------------|--------------3--5--------|
 --0--0--0--0--0--0--0--0--|--0--0--0--0--------------|

[E] [E] [E] [E] [E] [E] [E] [E] [E] [E] [E] [E] [E] [E] [E] [E]  
 
 --------------------------|--------------------------|
 --------------------------|--------------------------|
 --3--3--3--3--3--3--3--3--|--3--3--3--3--3--3--3--3--|
 --------------------------|--------------------------|

[E] [E] [E] [E] [E] [E] [E] [E] [E] [E] [E] [E] [E] [E] [E] [E]  
 
 --------------------------|--------------------------|
 --------------------------|--------------------5--4--|
 --------------------------|--------------3--5--------|
 --3--3--3--3--3--3--3--3--|--2--2--2--2--------------|

[E] [E] [E] [E] [E] [E] [E] [E] [E] [E] [E] [E] [E] [E] [E] [E]  
 
 --------------------------|--------------------------|
 --------------------------|--------------------5--4--|
 --------------------------|--------------3--5--------|
 --0--0--0--0--0--0--0--0--|--0--0--0--0--------------|

[E] [E] [E] [E] [E] [E] [E] [E] [E] [E] [E] [E] [E] [E] [E] [E]  
 
 --------------------------|--------------------------|
 --------------------------|--------------------5--4--|
 --------------------------|--------------3--5--------|
 --0--0--0--0--0--0--0--0--|--0--0--0--0--------------|

[E] [E] [E] [E] [E] [E] [E] [E] [E] [E] [E] [E] [E] [E] [E] [E]  
 
 --------------------------|--------------------------|
 --------------------------|--------------------------|
 --3--3--3--3--3--3--3--3--|--3--3--3--3--3--3--3--3--|
 --------------------------|--------------------------|

[E] [E] [E] [E] [E] [E] [E] [E] [E] [E] [E] [E] [E] [E] [E] [E]  
 
 --------------------------|--------------------------|
 --------------------------|--------------------------|
 --------------------------|--------------------------|
 --3--3--3--3--3--3--3--3--|--2--2--2--2--3--3--2--2--|

[E] [E] [E] [E] [E] [E] [E] [E] [E] [E] [E] [E] [E] [E] [E] [E]  
 
 --------------------------|--------------------------|
 --------------------------|--------------------5--4--|
 --7--7--7--7--7--7--7--7--|--7--7--7--7--3--5--------|
 --0--0--0--0--0--0--0--0--|--0--0--0--0--------------|

[E] [E] [E] [E] [E] [E] [E] [E] [E] [E] [E] [E] [E] [E] [E] [E]  
 
 --------------------------|--------------------------|
 --------------------5--4--|--------------------5--4--|
 --7--7--7--7--3--5--------|--7--7--7--7--3--5--------|
 --0--0--0--0--------------|--0--0--0--0--------------|

[E] [E] [E] [E] [E] [E] [E] [E] [E] [E] [E] [E] [E] [E] [E] [E]  
 
 --------------------------|--------------------------|
 --------5--4--------5--4--|--------------------------|
 --3--5--------3--5--------|--5--5--5--5--5--5--5--5--|
 --------------------------|--------------------------|

[E] [E] [E] [E] [E] [E] [E] [E] [E] [E] [E] [E] [E] [E] [E] [E]  
 
 --------------------------|--------------------------|
 --------------------------|--------------------------|
 --5--5--5--5--5--5--5--5--|--5--5--5--5--5--5--5--5--|
 --------------------------|--------------------------|

[E] [E] [E] [E] [E] [E] [E] [E] [E] [E] [E] [E] [E] [E] [E] [E]  
 
 --------------------------|--------------------------|
 --------------------------|--------------------------|
 --5--5--5--5--5--5--5--5--|--1--1--1--1--1--1--1--1--|
 --------------------------|--------------------------|

E E E E E E E E Q. Q. Q E E E E Q Q
 
 --------------------------|---------------------|------------------------|
 --------------------------|---------------------|------------------------|
 --1--1--1--1--1--1--1--1--|----------------3----|--3--3--3--3--3----3----|
 --------------------------|--1------1-----------|------------------------|

E E E E E E E E E E E E Q Q E E E E E E E E
 
 --------------------------|------------------------|--------------------------|
 --------------------------|------------------------|--------------------------|
 --5--5--5--5--5--5--5--5--|--5--5--5--5--3----3----|--5--5--5--5--5--5--5--5--|
 --------------------------|------------------------|--------------------------|

[E] [E] [E] [E] [E] [E] [E] [E] [E] [E] [E] [E] [E] [E] [E] [E]  
 
 --------------------------|--------------------------|
 --------------------------|--------------------------|
 --5--5--5--5--5--5--5--5--|--1--1--1--1--1--1--1--1--|
 --------------------------|--------------------------|

E E E E E E E E E E E E E E Q E E E E Q Q
 
 --------------------------|-------------------------|------------------------|
 --------------------------|-------------------------|------------------------|
 --1--1--1--1--1--1--1--1--|--------------------3----|--3--3--3--3--3----3----|
 --------------------------|--1--1--1--1--1--1-------|------------------------|

E E E E E E E E E E E E Q Q E E E E E E E E
 
 --------------------------|------------------------|--------------------------|
 --------------------------|------------------------|--------------------------|
 --5--5--5--5--5--5--5--5--|--5--5--5--5--3----3----|--5--5--5--5--5--5--5--5--|
 --------------------------|------------------------|--------------------------|

[E] [E] [E] [E] [E] [E] [E] [E] [E] [E] [E] [E] [E] [E] [E] [E]  
 
 --------------------------|--------------------------|
 --------------------------|--------------------------|
 --5--5--5--5--5--5--5--5--|--1--1--1--1--1--1--1--1--|
 --------------------------|--------------------------|

E E E E E E E E E E E E E E Q E E E E E E E E
 
 --------------------------|-------------------------|--------------------------|
 --------------------------|-------------------------|--------------------------|
 --1--1--1--1--1--1--1--1--|--------------------3----|--3--3--3--3--3--3--3--3--|
 --------------------------|--1--1--1--1--1--1-------|--------------------------|

E E E E E E E E E E E E Q Q E E E E E E E E
 
 --------------------------|------------------------|--------------------------|
 --------------------------|------------------------|--------------------------|
 --5--5--5--5--5--5--5--5--|--5--5--5--5--3----3----|--5--5--5--5--5--5--5--5--|
 --------------------------|------------------------|--------------------------|

[E] [E] [E] [E] [E] [E] [E] [E] [E] [E] [E] [E] [E] [E] [E] [E]  
 
 --------------------------|--------------------------|
 --------------------------|--------------------------|
 --5--5--5--5--5--5--5--5--|--1--1--1--1--1--1--1--1--|
 --------------------------|--------------------------|

E E E E E E E E E E E E E E Q E E E E Q Q
 
 --------------------------|-------------------------|------------------------|
 --------------------------|-------------------------|------------------------|
 --1--1--1--1--1--1--1--1--|--------------------3----|--3--3--3--3--3----3----|
 --------------------------|--1--1--1--1--1--1-------|------------------------|

E E E E E E E E E E E E Q Q E E E E E E E E
 
 --------------------------|------------------------|--------------------------|
 --------------------------|------------------------|--------------------------|
 --5--5--5--5--5--5--5--5--|--5--5--5--5--3----3----|--5--5--5--5--5--5--5--5--|
 --------------------------|------------------------|--------------------------|

[E] [E] [E] [E] [E] [E] [E] [E] [E] [E] [E] [E] [E] [E] [E] [E]  
 
 --------------------------|--------------------------|
 --------------------------|--------------------------|
 --5--5--5--5--5--5--5--5--|--1--1--1--1--1--1--1--1--|
 --------------------------|--------------------------|

E E E E E E E E E E E E E E Q E E E E E E E E
 
 --------------------------|-------------------------|--------------------------|
 --------------------------|-------------------------|--------------------------|
 --1--1--1--1--1--1--1--1--|--------------------3----|--3--3--3--3--3--3--3--3--|
 --------------------------|--1--1--1--1--1--1-------|--------------------------|

E E E E E E E E E E E E Q Q E E E E E E E E
 
 --------------------------|------------------------|--------------------------|
 --------------------------|------------------------|--------------------------|
 --5--5--5--5--5--5--5--5--|--5--5--5--5--3----3----|--5--5--5--5--5--5--5--5--|
 --------------------------|------------------------|--------------------------|

[E] [E] [E] [E] [E] [E] [E] [E] [E] [E] [E] [E] [E] [E] [E] [E]  
 
 --------------------------|--------------------------|
 --------------------------|--------------------------|
 --5--5--5--5--5--5--5--5--|--1--1--1--1--1--1--1--1--|
 --------------------------|--------------------------|

E E E E E E E E E E E E E E Q E E E E E E E E
 
 --------------------------|-------------------------|--------------------------|
 --------------------------|-------------------------|--------------------------|
 --1--1--1--1--1--1--1--1--|--------------------3----|--3--3--3--3--3--3--3--3--|
 --------------------------|--1--1--1--1--1--1-------|--------------------------|

E E E E E E E E E E E E Q Q E E E E E E E E
 
 --------------------------|------------------------|--------------------------|
 --------------------------|------------------------|--------------------------|
 --5--5--5--5--5--5--5--5--|--5--5--5--5--3----3----|--5--5--5--5--5--5--5--5--|
 --------------------------|------------------------|--------------------------|

[E] [E] [E] [E] [E] [E] [E] [E] [E] [E] [E] [E] [E] [E] [E] [E]  
 
 --------------------------|--------------------------|
 --------------------------|--------------------------|
 --5--5--5--5--5--5--5--5--|--1--1--1--1--1--1--1--1--|
 --------------------------|--------------------------|

E E E E E E E E E E E E E E Q E E E E E E E E
 
 --------------------------|-------------------------|--------------------------|
 --------------------------|-------------------------|--------------------------|
 --1--1--1--1--1--1--1--1--|--------------------3----|--3--3--3--3--3--3--3--3--|
 --------------------------|--1--1--1--1--1--1-------|--------------------------|

E E E E E E E E E E E E Q Q E E E E E E E E
 
 --------------------------|------------------------|--------------------------|
 --------------------------|------------------------|--------------------------|
 --5--5--5--5--5--5--5--5--|--5--5--5--5--3----3----|--5--5--5--5--5--5--5--5--|
 --------------------------|------------------------|--------------------------|

[E] [E] [E] [E] [E] [E] [E] [E]  
 
 --------------------------||
 --------------------------||
 --5--5--5--5--5--5--5--5--||
 --------------------------||

Duration Legend
 
 ---------------

W - whole
H - half
Q - quarter
E - 8th
S - 16th
T - 32nd
X - 64th
. - note dotted
|-n-| - n-tuplets
Tablature Legend
 
 ----------------

L - tied note
x - dead note
g - grace note
(n) - ghost note
> - accentuded note
NH - natural harmonic
AH - artificial harmonic
TH - tapped harmonic
SH - semi harmonic
PH - pitch harmonic
h - hammer on
p - pull off
b - bend
br - bendRelease
pb - preBend
pbr - preBendRelease
brb - bendReleaseBend
\n/ - tremolo bar dip
\n - tremolo bar dive
-/n - tremolo bar Release up
/n\ - tremolo bar inverted dip
/n - tremolo bar return
-\n - tremolo bar Release down
S - shift slide
s - legato slide
/ - slide into from below or out of upwards
\ - slide into from above or out of downwards
~ - vibrato
W - wide vibrato
tr - trill
TP - tremolo picking
T - tapping
S - slap
P - pop
< - fade in
^ - brush up
v - brush down

Important: The song above is NOT stored on the Chordie server. The original song is hosted at www.guitartabs.cc. Chordie works as a search engine and provides on-the-fly formatting. Chordie does not index songs against artists'/composers' will. To remove this song please click here.

Text color:
Chord color:
Chord grids: 
Font size:    
Page size: 

E
Rate #1 of 1 versions

Jango Player

Login - add to songbook

SHARE PAGE  




You need to log in to post comments