Guitar Tabs, Chords and Lyrics
Server problems seems to be fixed. Chordie has been experiencing problems with songs disappearing. These issues now seems to be fixed, but still verifying the fix. If you find anything strange, please email admin@chordie.com.


All or Nothing  Accept

All Or Nothing
Transcribed by an unregistered user
Accept
[Bass]  
Q S S S S S S S S S S S S S S S S
 
 G||-------|----------------------------------|
 D||-------|----------------------------------|
 A||-------|----------------3-5-5-5-5-5-5-5-5-|
 E||-------|--5-5-5-5-5-5-7-------------------|

S S S S S S S S S S S S S S S S S S S S S S S S S S S S S S S S
 
 ----------------------------------|----------------------------------|
 ----------------------------------|----------------------------------|
 ------------------5-5-5-5-5-5-5-3-|----------------5-5-5-5-5-5-5-5-5-|
 --3-3-3-3-3-3-3-3-----------------|--5-5-5-5-5-5-7-------------------|

S S S S S S S S S S S S S S S S S S S S S S S S S S S S S S S S
 
 ----------------------------------|----------------------------------|
 ----------------------------------|----------------------------------|
 ----------------------------------|----------------5-5-5-5-5-5-5-5-5-|
 --3-3-3-3-3-3-3-3-5-5-5-5-5-5-3-5-|--5-5-5-5-5-5-7-------------------|

S S S S S S S S S S S S S S S S S S S S S S S S S S S S S S S S
 
 ----------------------------------|----------------------------------|
 ----------------------------------|----------------------------------|
 ------------------5-5-5-5-5-5-5-3-|----------------5-5-5-5-5-5-5-5-5-|
 --3-3-3-3-3-3-3-3-----------------|--5-5-5-5-5-5-7-------------------|

S S S S S S S S H E E E E E E E E
 
 ---------------------------|--------------------------|
 ---------------------------|--------------------------|
 ---------------------------|--2-----2-----2-----2-----|
 --3-3-3-3-3-3-3-3----------|--------------------------|

[E] [E] [E] [E] [E] [E] [E] [E] [E] [E] [E] [E] [E] [E] [E] [E]  
 
 --------------------------|--------------------------|
 --------------------------|--------------------------|
 --2-----2-----2-----2-----|--2-----2-----2-----2-----|
 --------------------------|--------------------------|

[E] [E] [E] [E] [E] [E] [E] [E] [E] [E] [E] [E] [E] [E] [E] [E]  
 
 --------------------------|--------------------------|
 --------------------------|--------------------------|
 --2-----2-----2-----2-----|--2-----2-----2-----2-----|
 --------------------------|--------------------------|

[E] [E] [E] [E] [E] [E] [E] [E] [E] [E] [E] [E] [E] [E] [E] [E]  
 
 --------------------------|--------------------------|
 --------------------------|--------------------------|
 --2-----2-----2-----2-----|--2-----2-----2-----2-----|
 --------------------------|--------------------------|

[E] [E] [E] [E] [E] [E] [E] [E] [E] [E] [E] [E] [E] [E] [E] [E] [E] [E] [E] [E] [B]  
 
 --------------------------|--------------------------|-----------------------|
 --------------------------|--------------------------|-----------2--2--------|
 --2-----2-----2-----2-----|--2-----2-----2-----2-----|--5--5-----0--0--------|
 --------------------------|--------------------------|--3--3-----------------|

[E] [E] [E] [E] [E] [E] [E] [E] [E] [E] [E] [E] [E] [E] [E] [E]  
 
 --------------------------|--------------------------|
 --------------------------|--------------------------|
 --2-----2-----2-----2-----|--2-----2-----2-----2-----|
 --------------------------|--------------------------|

[E] [E] [E] [E] [E] [E] [E] [E] [E] [E] [E] [E] [E] [E] [E] [E]  
 
 --------------------------|--------------------------|
 --------------------------|--------------------------|
 --2-----2-----2-----2-----|--2-----2-----2-----2-----|
 --------------------------|--------------------------|

[E] [E] [E] [E] [E] [E] [E] [E] [E] [E] [E] [E] [E] [E] [E] [E]  
 
 --------------------------|--------------------------|
 --------------------------|--------------------------|
 --2-----2-----2-----2-----|--2-----2-----2-----2-----|
 --------------------------|--------------------------|

[E] [E] [E] [E] [E] [E] [E] [E] [E] [E] [E] [E] [B]  
 
 --------------------------|-----------------------|
 --------------------------|-----------------------|
 --2-----2-----2-----2-----|-----------0--0--------|
 --------------------------|--3--3--L--------------|

S S S S S S S S S S S S S S S S S S S S S S S S S S S S S S S S
 
 ----------------------------------|----------------------------------|
 ----------------------------------|----------------------------------|
 ----------------5-5-5-5-5-5-5-5-0-|------------------5-5-5-5-5-5-5-3-|
 --5-5-5-5-5-5-7-------------------|--3-3-3-3-3-3-3-3-----------------|

S S S S S S S S S S S S S S S S S S S S S S S S S S S S S S E
 
 ----------------------------------|---------------------------------|
 ----------------------------------|---------------------------------|
 ----------------5-5-5-5-5-5-5-5-5-|---------------------------------|
 --5-5-5-5-5-5-7-------------------|--3-3-3-3-3-3-3-3-5-5-5-5-5-5-3--|

S S S S S S S S S S S S S S S S S S S S S S S S S S S S S S S S
 
 ----------------------------------|----------------------------------|
 ----------------------------------|----------------------------------|
 ----------------5-5-5-5-5-5-5-5-5-|------------------5-5-5-5-5-5-5-3-|
 --5-5-5-5-5-5-7-------------------|--3-3-3-3-3-3-3-3-----------------|

S S S S S S S S S S S S S S S S S S S S S S S S S S S S S S S S
 
 ----------------------------------|----------------------------------|
 ----------------------------------|----------------------------------|
 ----------------5-5-5-5-5-5-5-0-0-|--1-1-1-1-1-1-1-1-3-3-3-3-3-3-3-3-|
 --5-5-5-5-5-5-7-------------------|----------------------------------|

W E E E E E E E E E E E E E E E E
 
 -------------------|--------------------------|--------------------------|
 -------------------|--------------------------|--------------------------|
 --5----------------|--2-----2-----2-----2-----|--2-----2-----2-----2-----|
 -------------------|--------------------------|--------------------------|

[E] [E] [E] [E] [E] [E] [E] [E] [E] [E] [E] [E] [E] [E] [E] [E]  
 
 --------------------------|--------------------------|
 --------------------------|--------------------------|
 --2-----2-----2-----2-----|--2-----2-----2-----2-----|
 --------------------------|--------------------------|

[E] [E] [E] [E] [E] [E] [E] [E] [E] [E] [E] [E] [E] [E] [E] [E]  
 
 --------------------------|--------------------------|
 --------------------------|--------------------------|
 --2-----2-----2-----2-----|--2-----2-----2-----2-----|
 --------------------------|--------------------------|

[E] [E] [E] [E] [E] [E] [E] [E] [E] [E] [E] [E] [E] [E] [E] [E]  
 
 --------------------------|--------------------------|
 --------------------------|--------------------------|
 --2-----2-----2-----2-----|--2-----2-----2-----2-----|
 --------------------------|--------------------------|

E E E E E E E E E E E E E E S E.
 
 --------------------------|---------------------------|
 --------------------------|-----------2--2--2S--7-0---|
 --2-----2-----2-----2-----|--5--5-----0--0------------|
 --------------------------|--3--3---------------------|

[E] [E] [E] [E] [E] [E] [E] [E] [E] [E] [E] [E] [E] [E] [E] [E]  
 
 --------------------------|--------------------------|
 --------------------------|--------------------------|
 --2-----2-----2-----2-----|--2-----2-----2-----2-----|
 --------------------------|--------------------------|

[E] [E] [E] [E] [E] [E] [E] [E] [E] [E] [E] [E] [E] [E] [E] [E]  
 
 --------------------------|--------------------------|
 --------------------------|--------------------------|
 --2-----2-----2-----2-----|--2-----2-----2-----2-----|
 --------------------------|--------------------------|

[E] [E] [E] [E] [E] [E] [E] [E] [E] [E] [E] [E] [E] [E] [E] [E]  
 
 --------------------------|--------------------------|
 --------------------------|--------------------------|
 --2-----2-----2-----2-----|--2-----2-----2-----2-----|
 --------------------------|--------------------------|

[E] [E] [E] [E] [E] [E] [E] [E] [E] [E] [E] [E] [B]  
 
 --------------------------|-----------------------|
 --------------------------|-----------------------|
 --2-----2-----2-----2-----|-----------0--0--------|
 --------------------------|--3--3--L--------------|

S S S S S S S S S S S S S S S S S S S S S S S S S S S S S S S S
 
 ----------------------------------|----------------------------------|
 ----------------------------------|----------------------------------|
 ----------------5-5-5-5-5-5-5-5-5-|------------------5-5-5-5-5-5-5-3-|
 --5-5-5-5-5-5-7-------------------|--3-3-3-3-3-3-3-3-----------------|

S S S S S S S S S S S S S S S S S S S S S S S S S S S S S S S S
 
 ----------------------------------|----------------------------------|
 ----------------------------------|----------------------------------|
 ----------------5-5-5-5-5-5-5-5-5-|----------------------------------|
 --5-5-5-5-5-5-7-------------------|--3-3-3-3-3-3-3-3-5-5-5-5-5-5-3-5-|

S S S S S S S S S S S S S S S S S S S S S S S S S S S S S S S S
 
 ----------------------------------|----------------------------------|
 ----------------------------------|----------------------------------|
 ----------------5-5-5-5-5-5-5-5-5-|------------------5-5-5-5-5-5-5-3-|
 --5-5-5-5-5-5-7-------------------|--3-3-3-3-3-3-3-3-----------------|

S S S S S S S S S S S S S S S S S S S S S S S S S S S S S S S S
 
 ----------------------------------|----------------------------------|
 ----------------------------------|----------------------------------|
 ----------------5-5-5-5-5-5-5-0-0-|--1-1-1-1-1-1-1-1-3-3-3-3-3-3-3-3-|
 --5-5-5-5-5-5-7-------------------|----------------------------------|

S S S S S S S S S S E E E S S S S S S S S S S S S S S S S
 
 -------------------------------|----------------------------------|
 -------------------------------|----------------------------------|
 --5-5-5-5-5-5-5-5-5-5-0--5--0--|--1-1-1-1-1-1-1-1-3-3-3-3-3-3-3-3-|
 -------------------------------|----------------------------------|

S S S S S S S S S S S S S S E S S S S S S S S S S S S S S S S
 
 ---------------------------------|----------------------------------|
 ---------------------------------|----------------------------------|
 --5-5-5-5-5-5-5-5-5-5-5-5-5-5----|----------------------------------|
 ------------------------------0--|--3-3-3-3-3-3-3-3-2-2-2-2-2-2-2-2-|

S S S S S S S S E E E E S S S S S S S S S S S S S S S S
 
 ------------------------------|----------------------------------|
 ------------------------------|----------------------------------|
 --2-2-2-2-2-2-2-2-2--2--0-----|----------------------------------|
 ---------------------------0--|--3-3-3-3-3-3-3-3-5-5-5-5-5-5-5-5-|

S S S S S S S S S S S S S S S S S S S S S S S S S S S S S S S S
 
 ----------------------------------|----------------------------------|
 ----------------------------------|----------------------------------|
 --5-5-5-5-5-5-5-5-5-5-5-5-5-5-5-5-|----------------------------------|
 ----------------------------------|--3-3-3-3-3-3-3-3-2-2-2-2-2-2-2-2-|

S S S S S S S S E E E E S S S S S S S S S S S S S S S S
 
 ------------------------------|----------------------------------|
 ------------------------------|----------------------------------|
 --2-2-2-2-2-2-2-2-2--2--0-----|----------------------------------|
 ---------------------------0--|--3-3-3-3-3-3-3-3-5-5-5-5-5-5-5-5-|

S S S S S S S S S S S S S S S S S S S S S S S S S S S S S S S S
 
 ----------------------------------|----------------------------------|
 ----------------------------------|----------------------------------|
 --5-5-5-5-5-5-5-5-5-5-5-5-5-5-5-5-|----------------------------------|
 ----------------------------------|--3-3-3-3-3-3-3-3-2-2-2-2-2-2-2-2-|

S S S S S S S S E E E E S S S S S S S S S S S S S S S S
 
 ------------------------------|----------------------------------|
 ------------------------------|----------------------------------|
 --2-2-2-2-2-2-2-2-2--2--0-----|----------------------------------|
 ---------------------------0--|--3-3-3-3-3-3-3-3-5-5-5-5-5-5-5-5-|

S S S S S S S S S S S S S S S S S S S S S S S S S S S S S S S S
 
 ----------------------------------|----------------------------------|
 ----------------------------------|----------------------------------|
 --5-5-5-5-5-5-5-5-5-5-5-5-5-5-5-5-|----------------------------------|
 ----------------------------------|--3-3-3-3-3-3-3-3-2-2-2-2-2-2-2-2-|

S S S S S S S S E E E E S S S S S S S S S S S S S S S S
 
 ------------------------------|----------------------------------|
 ------------------------------|----------------------------------|
 --2-2-2-2-2-2-2-2-2--2--0-----|----------------------------------|
 ---------------------------0--|--3-3-3-3-3-3-3-3-5-5-5-5-5-5-5-5-|

S S S S S S S S S S S S S S S S S S S S S S S S S S S S S S S S
 
 ----------------------------------|----------------------------------|
 ----------------------------------|----------------------------------|
 --5-5-5-5-5-5-5-5-5-5-5-5-5-5-5-5-|----------------5-5-5-5-5-5-5-5-5-|
 ----------------------------------|--5-5-5-5-5-5-7-------------------|

S S S S S S S S S S S S S S S S S S S S S S S S S S S S S S S S
 
 ----------------------------------|----------------------------------|
 ----------------------------------|----------------------------------|
 ------------------5-5-5-5-5-5-5-3-|----------------5-5-5-5-5-5-5-5-5-|
 --3-3-3-3-3-3-3-3-----------------|--5-5-5-5-5-5-7-------------------|

S S S S S S S S S S S S S S S S S S S S S S S S S S S S S S S S
 
 ----------------------------------|----------------------------------|
 ----------------------------------|----------------------------------|
 ----------------------------------|----------------5-5-5-5-5-5-5-5-5-|
 --3-3-3-3-3-3-3-3-5-5-5-5-5-5-3-5-|--5-5-5-5-5-5-7-------------------|

S S S S S S S S S S S S S S S S S S S S S S S S S S S S S S S S
 
 ----------------------------------|----------------------------------|
 ----------------------------------|----------------------------------|
 ------------------5-5-5-5-5-5-5-3-|----------------5-5-5-5-5-5-5-0-0-|
 --3-3-3-3-3-3-3-3-----------------|--5-5-5-5-5-5-7-------------------|

S S S S S S S S S S S S S S S S S S S S S S S S S S S S S S S S
 
 ----------------------------------|----------------------------------|
 ----------------------------------|----------------------------------|
 --1-1-1-1-1-1-1-1-3-3-3-3-3-3-3-3-|----------------5-5-5-5-5-5-5-5-5-|
 ----------------------------------|--5-5-5-5-5-5-7-------------------|

S S S S S S S S S S S S S S S S S S S S S S S S S S S S S S S S
 
 ----------------------------------|----------------------------------|
 ----------------------------------|----------------------------------|
 ------------------5-5-5-5-5-5-5-3-|----------------5-5-5-5-5-5-5-5-5-|
 --3-3-3-3-3-3-3-3-----------------|--5-5-5-5-5-5-7-------------------|

S S S S S S S S S S S S S S S S S S S S S S S S S S S S S S S S
 
 ----------------------------------|----------------------------------|
 ----------------------------------|----------------------------------|
 ----------------------------------|----------------5-5-5-5-5-5-5-5-5-|
 --3-3-3-3-3-3-3-3-5-5-5-5-5-5-3-5-|--5-5-5-5-5-5-7-------------------|

S S S S S S S S S S S S S S S S S S S S S S S S S S S S S S S S
 
 ----------------------------------|----------------------------------|
 ----------------------------------|----------------------------------|
 ------------------5-5-5-5-5-5-5-3-|----------------5-5-5-5-5-5-5-0-0-|
 --3-3-3-3-3-3-3-3-----------------|--5-5-5-5-5-5-7-------------------|

S S S S S S S S S S S S S S S S S S S S S S S S S S S S S S S S
 
 ----------------------------------|----------------------------------|
 ----------------------------------|----------------------------------|
 --1-1-1-1-1-1-1-1-3-3-3-3-3-3-3-3-|----------------5-5-5-5-5-5-5-5-5-|
 ----------------------------------|--5-5-5-5-5-5-7-------------------|

S S S S S S S S S S S S S S S S S S S S S S S S S S S S S S S S
 
 ----------------------------------|----------------------------------|
 ----------------------------------|----------------------------------|
 ------------------5-5-5-5-5-5-5-3-|----------------5-5-5-5-5-5-5-5-5-|
 --3-3-3-3-3-3-3-3-----------------|--5-5-5-5-5-5-7-------------------|

S S S S S S S S S S S S S S S S S S S S S S S S S S S S S S S S
 
 ----------------------------------|----------------------------------|
 ----------------------------------|----------------------------------|
 ----------------------------------|----------------5-5-5-5-5-5-5-5-5-|
 --3-3-3-3-3-3-3-3-5-5-5-5-5-5-3-5-|--5-5-5-5-5-5-7-------------------|

S S S S S S S S S S S S S S S S S S S S S S S S S S S S S S S S
 
 ----------------------------------|----------------------------------|
 ----------------------------------|----------------------------------|
 ------------------5-5-5-5-5-5-5-3-|----------------5-5-5-5-5-5-5-0-0-|
 --3-3-3-3-3-3-3-3-----------------|--5-5-5-5-5-5-7-------------------|

S S S S S S S S S S S S S S S S S S S S S S S S S S S S S S S S
 
 ----------------------------------|----------------------------------|
 ----------------------------------|----------------------------------|
 --1-1-1-1-1-1-1-1-3-3-3-3-3-3-3-3-|--5-5-5-5-5-5-5-5-5-5-5-5-5-5-5-5-|
 ----------------------------------|----------------------------------|

S S S S S S S S S S S S S S S S S S S S S S S S S S S S S S S S
 
 ----------------------------------|----------------------------------|
 ----------------------------------|----------------------------------|
 --1-1-1-1-1-1-1-1-3-3-3-3-3-3-3-3-|--5-5-5-5-5-5-5-5-5-5-5-5-5-5-5-5-|
 ----------------------------------|----------------------------------|

H H W W
 
 --------------------|-------------------|-------------------|
 --------------------|-------------------|-------------------|
 --1--------3--------|--5----------------|--L----------------|
 --------------------|-------------------|-------------------|

W
 
 -------------------||
 -------------------||
 --L----------------||
 -------------------||

Duration Legend
 
 ---------------

W - whole
H - half
Q - quarter
E - 8th
S - 16th
T - 32nd
X - 64th
. - note dotted
|-n-| - n-tuplets
Tablature Legend
 
 ----------------

L - tied note
x - dead note
g - grace note
(n) - ghost note
> - accentuded note
NH - natural harmonic
AH - artificial harmonic
TH - tapped harmonic
SH - semi harmonic
PH - pitch harmonic
h - hammer on
p - pull off
b - bend
br - bendRelease
pb - preBend
pbr - preBendRelease
brb - bendReleaseBend
\n/ - tremolo bar dip
\n - tremolo bar dive
-/n - tremolo bar Release up
/n\ - tremolo bar inverted dip
/n - tremolo bar return
-\n - tremolo bar Release down
S - shift slide
s - legato slide
/ - slide into from below or out of upwards
\ - slide into from above or out of downwards
~ - vibrato
W - wide vibrato
tr - trill
TP - tremolo picking
T - tapping
S - slap
P - pop
< - fade in
^ - brush up
v - brush down

Important: The song above is NOT stored on the Chordie server. The original song is hosted at www.guitartabs.cc. Chordie works as a search engine and provides on-the-fly formatting. Chordie does not index songs against artists'/composers' will. To remove this song please click here.

Text color:
Chord color:
Chord grids: 
Font size:    
Page size: 

B E
Rate #1 of 1 versions

Login - add to songbook

SHARE PAGE  




You need to log in to post comments