Guitar Tabs, Chords and Lyrics
Server problems seems to be fixed. Chordie has been experiencing problems with songs disappearing. These issues now seems to be fixed, but still verifying the fix. If you find anything strange, please email admin@chordie.com.


Emily  Adam Green

 
 -------------------------------------------------------------------------------

Emily - Adam Green
 
 -------------------------------------------------------------------------------

Tabbed by:schleichi
Email: ljubomir@web.de
Tuning: standard
alright I ll start with the piano part, because thats probably the only thing on the internet
that you still canīt find (well, actually I still havenīt found tabs for the national anthem
of Bulgaria, too..)anyway, what Iīm trying to tell you is that you should feel lucky
that you have found this tabulature of this great song.
1:39
 
 e|--17-17-17-17--17-17-17-------------------17-17-17--17-17-17--------------------------|
 B|--19-19-19-19--19-17-15---12-15-15--------19-19-19--19-17-15---19-17-17-------15--17--|
 G|---------------------------------------------------------------------------14-14--14--|
 D|--------------------------------------------------------------------------------------|
 A|--------------------------------------------------------------------------------------|
 E|--------------------------------------------------------------------------------------|

1:49
 
 e|---------------------15-15--17--19----17--17----17--17-17--17-17-17-17--|
 B|--19--19---19-17-15-------------------19--19-19-17--17-19--17-15-17-15--|
 G|------------------------------------------------------------------------|
 D|------------------------------------------------------------------------|
 A|------------------------------------------------------------------------|
 E|------------------------------------------------------------------------|

1:56
 
 e|--17-19--------17-19----------17--17---19------------17-19------|
 B|---------15-----------15------19--19-----19-17-15-----------15--|
 G|----------------------------------------------------------------|
 D|----------------------------------------------------------------|
 A|----------------------------------------------------------------|
 E|----------------------------------------------------------------|
 e|-------------------------------------------------12-10--9---12-10--9--|
 B|--18--18-17--15---17-18--18-17-15-----14-12-10---14-12-10---14-12-10--|
 G|--19--19-18--16---18-19--19-18-16-------------------------------------|
 D|----------------------------------------------------------------------|
 A|----------------------------------------------------------------------|
 E|----------------------------------------------------------------------|

intro+ verse: D G D A (only
[D] [G] [D] [A] [D]  
VERSE 1
I just don?t care about the evening news
I never listened to the crack-house blues
They say the city is a place to be
I want to dance with Emily
VERSE 2
Everybody come around the window shade
I guess they?ve never seen the moves I?ve got
I want to be with what the people see
I want to dance with Emily
REFRAIN
[G]Emily sweet baby wont you be my wife
[D]Cutting me wide open with the kitchen knife
[E]Everybody said that she is under age
[A]I --- try to shoot me with a [A7]seven ?gage
VERSE 3
Now I got the cookies that your momma sent D G D A
I got permission from the government D G D A D
Someone should mention to the minister
Now I gotta dance with Jennifer
VERSE 4
Jenny's got a mousehole full of pidgeon scum
On top a mountain made of bubble gum
Don't understand what all that grief is for
Now I gotta dance with Eleanor
Eleanor, I wonder if we grew too slow
Straight down the hatch beneath the streetlight's glow
Baby when I get you on that persian rug
That's the kind of movies I've been dreaming of
SOLO chords D G D A
[D] [G] [D] [A] [D]  
[G] [D]  
[G] [A]  
in this verse/BRIDGE you should play muted powerchords like this
2:07
 
 e|---------------------------------------------------------------------------|
 B|---------------------------------------------------------------------------|
 G|---------------------------------------------------------------------------|
 D|--7-7-9-7--7-7-9-7---------------------7-7-9-7--7-7-9-7--------------------|
 A|--5-5-5-5--5-5-5-5--5-5-7-5--5-5-7-5---5-5-5-5--5-5-5-5--7-7-9-7--7-7-9-7--|
 E|--------------------3-3-3-3--3-3-3-3---------------------5-5-5-5--5-5-5-5--|

D G D A and so on...
I'll tell you something that you'd think I know
I got two tickets to the sold out show
Some of the fellas like to think I'm Greek
I wanna love you maybe three days a week
repeat VERSE ONE
IF YOU LIKED THIS TAB- RATE IT
IF YOU DID NOT LKE THIS TAB- RATE IT, TOO
sooner or later ill tab the piano part in the verse. if you want the powertab of the
solo- email me ljubomir@web.de
===============================================================================

Important: The song above is NOT stored on the Chordie server. The original song is hosted at www.guitartabs.cc. Chordie works as a search engine and provides on-the-fly formatting. Chordie does not index songs against artists'/composers' will. To remove this song please click here.

Text color:
Chord color:
Chord grids: 
Font size:    
Page size: 

A A7 D E G
Rate #1 of 6 versions

Jango Player

Login - add to songbook

SHARE PAGE  




You need to log in to post comments