Guitar Tabs, Chords and Lyrics
Server problems seems to be fixed. Chordie has been experiencing problems with songs disappearing. These issues now seems to be fixed, but still verifying the fix. If you find anything strange, please email admin@chordie.com.


Alive  Adelitas Way

hey so i know the chords to this song so i'll put the chords after the tab. it might not
be perfect but i learnt it by ear so don't moan about the little problems please
tuning: standard
capo: fret one (for chords)
the intro/verse goes like this
 
 |---------------------------------------|

|key |
|4 |
|o|| means repeat 4 times then carry on |
|-| next line |
|/ slide up \slide down |
|..... palm mute |
|h hammer on |
|p pull off |
 
 |---------------------------------------|

intro
 
 E|---------------|
 B|--6-66-66-6-6-6|
 G|-6-6--6--6-6-6-|
 D|---------------|
 A|---------------|
 E|---------------|

verse
[3]  
 
 E|----------------||---4-64-4|
 B|--6-66-66-6-6-6-||-6--6--6-|
 G|-6-6--6--6-6-6-o||6-6------|
 D|---------------o||---------|
 A|----------------||---------|
 E|----------------||---------|

[3]  
 
 E|----------------||-98-6---|
 B|--6-66-66-6-6-6-||---9-969|
 G|-6-6--6--6-6-6-o||6-------|
 D|---------------o||--------|
 A|----------------||--------|
 E|----------------||--------|

those are elevens not ones
 
 E|89898----------89898---------|
 B|-----99/1196/99-----99/11969-|
 G|-----------------------------|
 D|----------------------------6|
 A|-----------------------------|
 E|-----------------------------|

pre chorus
[2]  
 
 E|------------||--------------|
 B|------------||--------------|
 G|-----------o||66666666666666|

D|666-88-1111o||66666666666666|
A|444-66-9-9--||44444444444444|
 
 E|------------||--------------|

chorus
 
 E|----------------------------------------------------------|
 B|----------------------------------------------------------|
 G|66666666--------------------------------------------------|

D|6666666666666666664444444433333333888888884444444466666666|
A|4444444466666666664444444433333333888888884444444466666666|
 
 E|--------44444444442222222211111111666666662222222244444444|x2

verse
[3]  
 
 E|----------------||--4-9846|
 B|--6-66-66-6-6-6-||-6-6----|
 G|-6-6--6--6-6-6-o||6-------|
 D|---------------o||--------|
 A|----------------||--------|
 E|----------------||--------|

those are elevens not ones
 
 E|89898----------89898---------|
 B|-----99/1196/99-----99/11969-|
 G|-----------------------------|
 D|----------------------------6|
 A|-----------------------------|
 E|-----------------------------|

pre chorus
[2]  
 
 E|------------||--------------|
 B|------------||--------------|
 G|-----------o||66666666666666|

D|666-88-1111o||66666666666666|
A|444-66-9-9--||44444444444444|
 
 E|------------||--------------|

chorus
 
 E|----------------------------------------------------------|
 B|----------------------------------------------------------|
 G|66666666--------------------------------------------------|

D|6666666666666666664444444433333333888888884444444466666666|
A|4444444466666666664444444433333333888888884444444466666666|
 
 E|--------44444444442222222211111111666666662222222244444444|x2

bridge
 
 E|-------------------|
 B|-------------------|
 G|-----6666----------|

D|4444-6666-8888-6666|
A|4444-4444-8888-6666|
 
 E|2222------6666-4444| x2

chorus
 
 E|----------------------------------|
 B|----------------------------------|
 G|66666666--------------------------|

D|6666666666666666664444444466666666|
A|4444444466666666664444444466666666|
 
 E|--------44444444442222222244444444|

..................................
 
 E|----------------------------------------------------------|
 B|----------------------------------------------------------|
 G|66666666--------------------------------------------------|

D|6666666666666666664444444433333333888888884444444466666666|
A|4444444466666666664444444433333333888888884444444466666666|
 
 E|--------44444444442222222211111111666666662222222244444444|x2

Intro
[C]  
verse:
[Am]What if I t[G]old you that [F]I think your [C]perfect?
[Am]Beautiful sk[G]y in your [F]eyes, it?s so [C]worth it.
[Am]I k[G]now you [F]make me [C]feel alive.
[Am] [G] [F] [C]  
[Am]What if I [G]told you that [F]I'm in for[C]ever?
[Am]Nothing to [G]hide, yeah, [F]I'll go wher[C]ever
[Am]You [G]go, you [F]make me [C]feel alive.
[Am] [G] [F]  
[Am]And I'll be hanging [G]on every [F]word you [C]say to me.
[Am]Hanging on a [G]feeling that [F]I get, cause you make me
pre-chorus
[C] [F] [G] Laugh a little louder
[C] [F] [G] Love a little harder.[F]
Chorus:
And [C]I feel [G]alive when I'm with [F]you
Every [Em]time it's something [Am]new.
Never knew what [G]love could feel like[F]
Until I walked [G]away the first time.
And [C]I feel a[G]live when I'm with [F]you.
Deep in[Em]side it's something [Am]true.
You're the only [G]reason I fight,[F]
You're the best [G]thing in my life.
[Am] [G] [F] [C]  
verse:
[Am]What if I [G]told you that [F]I'd never [C]hurt you?
[Am]Always be [G]there for [F]you to hold [C]on to.
[Am]I k[G]now you [F]make me [C]feel alive
[Am] [G] [F] [C]  
[Am]And every single [G]second's a [F]lifetime [C]memory,
[Am]I'll be holding [G]on to each [F]second cause you make me
Pre-Chorus
[C] [F] [G] Laugh a little louder
[C] [F] [G] Love a little harder.[F]
Chorus:
And [C]I feel [G]alive when I'm with [F]you
Every [Em]time it's something [Am]new.
Never knew what [G]love could feel like[F]
Until I walked [G]away the first time.
And [C]I feel a[G]live when I'm with [F]you.
Deep in[Em]side it's something [Am]true.
You're the only [G]reason I fight,[F]
You're the best [G]thing in my life.
BRIDGE
[F] [C] [Am] [G]  
[F] [C] [Am] [G]  
Chorus
And [C]I feel [G]alive when I'm with [F]you
[G]When I?m with you
And [C]I feel [G]alive when I'm with [F]you
Every [Em]time it's something [Am]new.
Never knew what [G]love could feel like[F]
Until I walked [G]away the first time.
And [C]I feel a[G]live when I'm with [F]you.
Deep in[Em]side it's something [Am]true.
You're the only [G]reason I fight,[F]
You're the best [G]thing in my life.[C]
and theres the song thanks to lbzta86 for the chords and problems leave a comment

Important: The song above is NOT stored on the Chordie server. The original song is hosted at www.guitartabs.cc. Chordie works as a search engine and provides on-the-fly formatting. Chordie does not index songs against artists'/composers' will. To remove this song please click here.

Text color:
Chord color:
Chord grids: 
Font size:    
Page size: 

Am C Em F G
Rate #1 of 6 versions

Jango Player

Login - add to songbook

SHARE PAGE  



You need to log in to post comments