Guitar Tabs, Chords and Lyrics
Server problems seems to be fixed. Chordie has been experiencing problems with songs disappearing. These issues now seems to be fixed, but still verifying the fix. If you find anything strange, please email admin@chordie.com.


Breathless   Aiden

 
 |----------------------| i haven't written
 |----------------------| the strumming pattern
 |--8--10--8--8---------| but it's pretty
 |--9--11--9--9---------| x4 easy to work out if
 |--9--11--9--9---------| you listen
 |--7--9---7--0---------|

 


 


 verse [0:25-0:40]


 

 
 |------------------------------------------------------|
 |------------------------------------------------------|
 |------10-----11-----10-----11-------------------------|
 |--8-8----8-8----8-8----8-8--------11/13-----11/13-----| x2
 |------------------------------9-9-------9-9-----------|
 |------------------------------------------------------|

 


 


 bridge [0:41-0:45]


 

 
 |----------------------|
 |----------------------|
 |----------------------|
 |-------8-9-11-9-8-----|
 |--9-11------------9---|
 |----------------------|

 


 


 chorus [0:45-1:00]


 

 
 |--------------------------------------------------|
 |--------------------------------------------------|
 |-11-10-8----11-10-8----11-10-8----11-13-11-10-----|
 |---------11---------11---------11-----------------|
 |--------------------------------------------------|
 |--------------------------------------------------|

 


 


 verse 2 [1:00-1:16]


 

 
 |------------------------------------------------------|
 |------------------------------------------------------|
 |------10-----11-----10-----11-------------------------|
 |--8-8----8-8----8-8----8-8--------11/13-----11/13-----| x2
 |------------------------------9-9-------9-9-----------|
 |------------------------------------------------------|

 


 


 bridge [1:16-1:20]


 

 
 |----------------------|
 |----------------------|
 |----------------------|
 |-------8-9-11-9-8-----|
 |--9-11------------9---|
 |----------------------|

 


 


 chorus 2 [1:21-1:52]


 

 
 |--------------------------------------------------|
 |--------------------------------------------------|
 |-11-10-8----11-10-8----11-10-8----11-13-11-10-----|
 |---------11---------11---------11-----------------| x2
 |--------------------------------------------------|
 |--------------------------------------------------|

 


 


 break [1:53-2:23]


 

 
 |--7--/--| |-------------------| again, i haven't
 |--7--/--| |-------------------| written the strumming
 |--8--/--| |-------------------| pattern but you can
 |--9--/--| |-2--4--6--9--4-----|x2 work it out if
 |--9--/--| |-2--4--6--9--4-----| you listen to the
 |--7--/--| |-0--2--4--7--2-----| song

 


 pm . . .


 


 chorus 3 [2:27-2:38]


 

 
 |--/----------------------------------------|
 |--/----------------------------------------|
 |--/--11-10-8----11-10-8----11-13-11-10-----|
 |--/----------11---------11-----------------|
 |--/----------------------------------------|
 |--/----------------------------------------|

 


 


 chorus 4 [2:39-2:55]


 

 
 |--------------------------------------------------|
 |--------------------------------------------------|
 |-11-10-8----11-10-8----11-10-8----11-13-11-10-----|
 |---------11---------11---------11-----------------|
 |--------------------------------------------------|
 |--------------------------------------------------|

 


 


 outro [2:55-3:10]


 

 
 |-------------------------------|
 |-------------------------------| listen to the
 |--8--10--8--8--8--10--8--7-----| song for the
 |--9--11--9--9--9--11--9--8-----| strumming pattern
 |--9--11--9--9--9--11--9--8-----|
 |--7--9---7--0--7--9---7--6-----|


Important: The song above is NOT stored on the Chordie server. The original song is hosted at www.guitartabs.cc. Chordie works as a search engine and provides on-the-fly formatting. Chordie does not index songs against artists'/composers' will. To remove this song please click here.

This song is displayed as text-only. Transposing and tuning is only available for chordpro-songs.
Rate #2 of 2 versions

Jango Player

Login - add to songbook

SHARE PAGE  




You need to log in to post comments