Guitar Tabs, Chords and Lyrics
Server problems seems to be fixed. Chordie has been experiencing problems with songs disappearing. These issues now seems to be fixed, but still verifying the fix. If you find anything strange, please email admin@chordie.com.


Poison  Alice Cooper

[D]  
 
 E||----------------------------|---------------------------||
 B||----------------------------|---------------------------||
 G||--7--7----------------------|--------5--------5--------*||
 D||--7--7--7p-0--14p-0--12p-0--|--4--5-----4/-5-----2p-0--*||
 A||--5--5----------------------|---------------------------||
 E||----------------------------|---------------------------||

Bb D5 3x
 
 -----------------------------|---------------------------||
 -----------------------------|---------------------------||
 *----------------------------|--------5--------5--------*||
 *--------7p-0--14p-0--12p-0--|--4--5-----4/-5-----2p-0--*||
 ---3/-5----------------------|---------------------------||
 -----------------------------|---------------------------||

[Bb] [D5]  
 
 ----------------------------|----------------------------|-------------------|
 ----------------------------|----------------------------|-------------------|
 ----------------------------|----------------------------|--7----------------|
 --------7p-0--14p-0--12p-0--|--7p-0--14p-0--12p-0--7--0--|--7----------------|
 --3/-5----------------------|----------------------------|--5----------------|
 ----------------------------|----------------------------|-------------------|

[Gm] [Eb]  
 
 ------------------|--------------3-----------|--------------------------|
 ------------------|--------3-----3--3-----3--|--------6-----6-----------|
 ------------------|-----3-----3-----3--3--3--|-----------------8-----8--|
 ------------------|-----5-----5--------5-----|-----8--------------8-----|
 ------------------|--------------------------|--6--------6--------------|
 ------------------|--x-----------------------|--------------------------|

[Bbsus2] [D5]  
 
 --------------------------|-------------------------|-------------------------|
 --------1-----1--------1--|-------------------------|-------------------------|
 -----------------3--------|--7----7--7--7--7--7--7--|--7--7--7--7--7--7--7----|
 -----3-----3--------3-----|--7----7--7--7--7--7--7--|--7--7--7--7--7--7--7----|
 --1-----------------------|--5----5--5--5--5--5--5--|--5--5--5--5--5--5--5----|
 --------------------------|-------------------------|-------------------------|
 ---------------------|---------------------|---------------------|
 ---------------------|---------------------|---------------------|
 --12------8----------|---------10----------|--5------13----------|
 --12------8----------|--8------10----------|--5------13----------|
 --10------6----------|--8------8-----------|--3------11----------|
 ---------------------|--6------------------|---------------------|
 --------------------|--------------------|---------------------|
 --------------------|--------------------|---------------------|
 --8-----------------|--------------------|--5------12----------|
 --8------8----------|--7------3----------|--5------12----------|
 --6------8----------|--7------3----------|--3------10----------|
 ---------6----------|--5------1----------|---------------------|
 --------------------|---------------------|-----------------------|
 --------------------|---------------------|-----------------------|
 --7-----------------|--10------5----------|--7----9--7--9--7/-----|
 --7------8----------|--10------5----------|-----------------------|
 --5------8----------|--8-------3----------|-----------------------|
 ---------6----------|---------------------|-----------------------|
 --------------------------|-----------------------|--------------------------|
 --------------------------|-----------------------|--------------------------|
 --------------------------|--7----9--7--9--7/-----|--------------------------|
 --3--5/-7--3--5p-3/-2h-5--|-----------------------|--3--5/-7--3--5p-3/-2h-5--|
 --------------------------|-----------------------|--------------------------|
 --------------------------|-----------------------|--------------------------|
 -----------------------|--------------------------|-----------------------|
 -----------------------|--------------------------|-----------------------|
 --7----9--7--9--7/-----|--------------------------|--7----9--7--9--7/-----|
 -----------------------|--3--5/-7--3--5p-3/-2h-5--|-----------------------|
 -----------------------|--------------------------|-----------------------|
 -----------------------|--------------------------|-----------------------|

[Bb]  
 
 --------------------------|----------------------------|
 --------------------------|----------------------------|
 --------------------------|----------------------------|
 --3--5/-7--3--5p-3/-2h-5--|--------7p-0--14p-0--12p-0--|
 --------------------------|--3/-5----------------------|
 --------------------------|----------------------------|

[Bb]  
 
 ----------------------------|----------------------------|
 ----------------------------|----------------------------|
 ----------------------------|----------------------------|
 --7p-0--14p-0--12p-0--7--0--|--------7p-0--14p-0--12p-0--|
 ----------------------------|--3/-5----------------------|
 ----------------------------|----------------------------|

[D5] [Bb]  
 
 --------------------------|----------------------------|
 --------------------------|----------------------------|
 --------5--------5--------|----------------------------|
 --4--5-----4/-5-----2p-0--|--------7p-0--14p-0--12p-0--|
 --------------------------|--3/-5----------------------|
 --------------------------|----------------------------|

[D5] [Bb]  
 
 --------------------------|----------------------------|
 --------------------------|----------------------------|
 --------5--------5--------|----------------------------|
 --4--5-----4/-5-----2p-0--|--------7p-0--14p-0--12p-0--|
 --------------------------|--3/-5----------------------|
 --------------------------|----------------------------|

[D5] [Bb]  
 
 --------------------------|----------------------------|
 --------------------------|----------------------------|
 --------5--------5--------|----------------------------|
 --4--5-----4/-5-----2p-0--|--------7p-0--14p-0--12p-0--|
 --------------------------|--3/-5----------------------|
 --------------------------|----------------------------|

[D5]  
 
 --------------------------|--------------------|-------------------|
 --------------------------|--------------------|-------------------|
 --------5--------5--------|--12----------------|--8----------------|
 --4--5-----4/-5-----2p-0--|--12----------------|--8----------------|
 --------------------------|--10----------------|--6----------------|
 --------------------------|--------------------|-------------------|

[D5]  
 
 -------------------|-------------------------|-------------------------|
 -------------------|-------------------------|-------------------------|
 -------------------|--7----7--7--7--7--7--7--|--7--7--7--7--7--7--7----|
 --8----------------|--7----7--7--7--7--7--7--|--7--7--7--7--7--7--7----|
 --8----------------|--5----5--5--5--5--5--5--|--5--5--5--5--5--5--5----|
 --6----------------|-------------------------|-------------------------|
 ---------------------|---------------------|---------------------|
 ---------------------|---------------------|---------------------|
 --12------8----------|---------10----------|--5------13----------|
 --12------8----------|--8------10----------|--5------13----------|
 --10------6----------|--8------8-----------|--3------11----------|
 ---------------------|--6------------------|---------------------|
 --------------------|--------------------|---------------------|
 --------------------|--------------------|---------------------|
 --8-----------------|--------------------|--5------12----------|
 --8------8----------|--7------3----------|--5------12----------|
 --6------8----------|--7------3----------|--3------10----------|
 ---------6----------|--5------1----------|---------------------|
 --------------------|---------------------|-----------------------|
 --------------------|---------------------|-----------------------|
 --7-----------------|--10------5----------|--7----9--7--9--7/-----|
 --7------8----------|--10------5----------|-----------------------|
 --5------8----------|--8-------3----------|-----------------------|
 ---------6----------|---------------------|-----------------------|
 --------------------------|-----------------------|--------------------------|
 --------------------------|-----------------------|--------------------------|
 --------------------------|--7----9--7--9--7/-----|--------------------------|
 --3--5/-7--3--5p-3/-2h-5--|-----------------------|--3--5/-7--3--5p-3/-2h-5--|
 --------------------------|-----------------------|--------------------------|
 --------------------------|-----------------------|--------------------------|
 -----------------------|--------------------------|-----------------------|
 -----------------------|--------------------------|-----------------------|
 --7----9--7--9--7/-----|--------------------------|--7----9--7--9--7/-----|
 -----------------------|--3--5/-7--3--5p-3/-2h-5--|-----------------------|
 -----------------------|--------------------------|-----------------------|
 -----------------------|--------------------------|-----------------------|

[Bb]  
 
 --------------------------|----------------------------|
 --------------------------|----------------------------|
 --------------------------|----------------------------|
 --3--5/-7--3--5p-3/-2h-5--|--------7p-0--14p-0--12p-0--|
 --------------------------|--3/-5----------------------|
 --------------------------|----------------------------|
 ----------------------------|-------------------|------------------||
 ----------------------------|-------------------|------------------||
 ----------------------------|--7----------------|------------------||
 --7p-0--14p-0--12p-0--7--0--|--7----------------|------------------||
 ----------------------------|--5----------------|------------------||
 ----------------------------|-------------------|------------------||

Tabbed by Ed_Hunter

Important: The song above is NOT stored on the Chordie server. The original song is hosted at www.guitartabs.cc. Chordie works as a search engine and provides on-the-fly formatting. Chordie does not index songs against artists'/composers' will. To remove this song please click here.

Text color:
Chord color:
Chord grids: 
Font size:    
Page size: 

Bb Bbsus2 D D5 Eb Gm
Rate #1 of 15 versions

Jango Player

Login - add to songbook

SHARE PAGE  



You need to log in to post comments