Guitar Tabs, Chords and Lyrics
Major upgrade!! After one year development the new version of Chordie is now online! Please give feedback.


Angry Chair  Alice in Chains

 
 -----------------------------------------------------------

ANGRY CHAIR - Alice in chains
 
 -----------------------------------------------------------

Tabbed by: Mark Galaz
Email: unitedstatesbombs@yahoo.com
100% correct
Screw the small talk and lets begin!
Tuning: EbAbDbGbBbeb
Gtr.1 (clean)
Repeats this riff
a bunch of times then both Gtrs.(dist)
Gtr.2 (Dist.)hits E5 with this riff
[F5] [E5]  
 
 e|-------------------------|------------------------------------------|
 B|-------------------------|------------------------------------------|
 G|-------------------------|------------------------------------------|
 D|-------------------------|---3-3-3-3-2--2---------------------------|
 A|-----2---3b4---2---3b4---|---3-3-3-3-2--2---------------------------|
 E|---0---0-----0---0-------|---1-1-1-1-0--0-0?5b6---------------------|

Both guitars
Chorus:
[A5] [B5] [F#5] [G5] [A5] [B5] [E5]  
 
 e|-----------------------------------------------|
 B|-----------------------------------------------|
 G|-----------------------------------------------|
 D|--7---9---4---5-----7---9---2------------------|
 A|--7---9---4---5-----7---9---2------------------|
 E|--5---7---2---3-----5---7---0-0-5b45b45b4------|

Solo:
Hold bend and tremolo
Pick
Note: 24 not 2 4
 
 e|---22b2424242424----------------------------------------------------|
 B|------------------0-------------------------------------------15b16-|
 G|--------------------7-------0---------2b42b42b4---/9-999-9p7--14b15-|
 D|-------------------------------0--x---------------------------------|
 A|----------------------0b1-------------------------------------------|
 E|--------------------------------------------------------------------|
 ---------------------------------------17b19---------------------------|
 ---15b17?15b17-16-15-------------15b16--------15b16--12-15-12-15-12-12-|
 ---------------------16-15-14-12-14b15--------14b17--------------------|
 -----------------------------------------------------------------------|
 -----------------------------------------------------------------------|
 -----------------------------------------------------------------------|

well thats pretty much it!
if its wrong email me
if it rocks email me
or whatever!

Important: The song above is NOT stored on the Chordie server. The original song is hosted at www.guitartabs.cc. Chordie works as a search engine and provides on-the-fly formatting. Chordie does not index songs against artists'/composers' will. To remove this song please click here.

Text color:
Chord color:
Chord grids: 
Font size:    
Page size: 

A5 B5 E5 F#5 F5 G5
Rate #1 of 5 versions

Jango Player

Login - add to songbook

SHARE PAGE  




You need to log in to post comments