Guitar Tabs, Chords and Lyrics
Major upgrade!! After one year development the new version of Chordie is now online! Please give feedback.


Down in a Hole   Alice in Chains

 
 G[-----------------------------(6)---------------------]
 D[-----------------------------------------------------]
 A[-----------------------------------------------------]
 E[-------4-4-4-4-4-4-4-4-------------------------------]

 


 


 VERSE


 

 
 G[-------------------------------------------------------]
 D[-----------1-------------------------------------------]
 A[-------2---------1-2-4--4h5p4------2-------------------]
 E[---4----------2----------------------------------------]

 


 


 PRE CHORUS


 

 
 G[-----1------------------------------------------------]
 D[-------4----1-----------------------------------------]
 A[---------------4-----2--------------------------------]
 E[---4--------------------------------------------------]

 


 


 CHORUS


 

 
 G[-----------------------------------------------------]
 D[-----------------------------------------------------]
 A[----------2-2----------------------------------------]
 E[--------0-----4-2-2BEND-0----------------------------] X4
 G[-------------]
 D[-------------]
 A[-------2-----]
 E[----0--------]
 G[-----------------------------------------------------]
 D[-----------------------------------------------------]
 A[---2-2-2---------------------------------------------]
 E[---------2--2--2BEND--0-0---0--0--2-3----------------]

 


 


 ENDING


 

 
 G[--------------------1-2-4-------5-4--------------------]
 D[------------1-2-4-------------------4---2-1------------]
 A[---------4----------------------------------4----------]
 E[----4-----------------------4--------------------------]
 G[------------------------11--14--13---------16-16----------]
 D[-----------------------------------13--14-----------6-----]
 A[------------4--2------------------------------------------]
 E[----4--------------4-----------------------------4--------]


Important: The song above is NOT stored on the Chordie server. The original song is hosted at www.guitartabs.cc. Chordie works as a search engine and provides on-the-fly formatting. Chordie does not index songs against artists'/composers' will. To remove this song please click here.

This song is displayed as text-only. Transposing and tuning is only available for chordpro-songs.
Rate #1 of 21 versions

Login - add to songbook

SHARE PAGE  




You need to log in to post comments