Guitar Tabs, Chords and Lyrics
Update 25:10. 13:00. Site is back up running again. Songbooks are recovered. Woring on getting search back up..


All Hope Is Gone  Alter Bridge

ALL HOPE IS GONE
As recorded by Alter Bridge
(From the 2010 Album AB III)
Words and Music by Mark Tremonti and Myles Kennedy
Transcribed by Liam Briggs - briggs.liam@gmail.com
x 10 [Gsus2]12 14 x x x 9 1[D/F#]2 11 10 x x 5[Dsus2] 7 9 x x x 4[A/C#] 7 6 5 x
Gtr I (Bb Ab Db Gb Bb Eb) - 'Guitar 1'
Gtr II (Bb Ab Db Gb Bb Eb) - 'Guitar 2'
Gtr III (Bb Ab Db Gb Bb Eb) - 'Guitar 3'
Gtr IV (Bb Ab Db Gb Bb Eb) - 'Guitar 4'
Gtr V (Bb Ab Db Gb Bb Eb) - 'Guitar 5'
Gtr VI (Bb Ab Db Gb Bb Eb) - 'Guitar 6'
Intro
Moderately Slow Q.=55
6[B]/8[G6]
Gtr I
E S S E S +S S S E E S S S S E S S S S
 
 |------------------------|------------------------|
 |------------------------|------------------------|
 |------------------------|------------0-----11h12-|
 |------------------------|----------0---0-0--0----|
 |-6---7-9-9b10r(9)---7-6-|-7---9h10---------------|
 |-0-0-----0--------0-----|-8-8--------------------|

[D] E S S S S [A] E S S S S [Bsus2] E S S S S E S S S S
 
 |-----------------------------|---------------------------|
 |-----------------------------|---------------------------|
 |-11---14p11------------------|---------------------------|
 |--0-0-------12-11---12p11----|-11---11---11-11---11-11---|
 |----------------0-0-------12-|-14---14---14-14---14-14---|
 |-----------------------------|--0-0----0-------0-------0-|

[B]E S S E S +S S S E [G6]E S S S S E S S S S
 
 |------------------------|------------------------|
 |------------------------|------------------------|
 |------------------------|------------0-----11h12-|
 |------------------------|----------0---0-0--0----|
 |-6---7-9-9b10r(9)---7-6-|-7---9h10---------------|
 |-0-0-----0--------0-----|-8-8--------------------|

[D] E S S S S [A] E S S S S [Bsus2] E S S S S E S S S S
 
 |-----------------------------|----------------------------||
 |-----------------------------|----------------------------||
 |-11---12p11------------------|----------------------------||
 |--0-0-------12-11---12p11----|-11---11---11-11---11-11----||
 |----------------0-0-------12-|-14---14---14-14---14-14----||
 |-----------------------------|--0-0----0-------0-------0--||

Verse 1
[B]Gtr I[G6]
E S S E S +S S S E E S S S S E S S S S
 
 ||-------------------------|------------------------|
 ||o------------------------|------------------------|
 ||-------------------------|------------0-----11h12-|
 ||-------------------------|----------0---0-0--0----|
 ||o-6---7-9-9b10r(9)---7-6-|-7---9h10---------------|
 ||--0-0-----0--------0-----|-8-8--------------------|

[D] E S S S S [A] E S S S S
 
 |------------------------------|
 |------------------------------|
 |-11---14p11-------------------|
 |--0-0-------12-11---12p11-----|
 |----------------0-0-------12--|
 |------------------------------|

[Bsus2] E S S S S E S S S S [B]E S S E S +S S S E [G6]E S S S S E S S S S
 
 |---------------------------|------------------------|------------------------|
 |---------------------------|------------------------|------------------------|
 |---------------------------|------------------------|------------0-----11h12-|
 |-11---11---11-11---11-11---|------------------------|----------0---0-0--0----|
 |-14---14---14-14---14-14---|-6---7-9-9b10r(9)---7-6-|-7---9h10---------------|
 |--0-0----0-------0-------0-|-0-0-----0--------0-----|-8-8--------------------|

[D]Gtr I[A] [Bsus2]
E S S S S E S S S S E S S S S E S S S S
 
 |-----------------------------|----------------------------||
 |-----------------------------|---------------------------o||
 |-11---12p11------------------|----------------------------||
 |--0-0-------12-11---12p11----|-11---11---11-11---11-11----||
 |----------------0-0-------12-|-14---14---14-14---14-14---o||
 |-----------------------------|--0-0----0-------0-------0--||

|
| Gtrs II, III
| W W
 
 |-----------------------------|----------------------------||
 |-----------------------------|---------------------------o||
 |-----------------------------|----------------------------||
 |-----------------------------|----------------------------||
 |-----------------------------|---------------------------o||
 |-----------------------------|----------------------------||

[Bm] E S S S S E S S S S
 
 |-------------------------------||
 |-------------------------------||
 |-------------------------------||
 |-12--12-12---12-12---12-12-----||
 |-14--14-14---14-14---14-14-----||
 |--0--------0-------0--------0--||

|
| Q. E S S S S
 
 |-------------------------------||
 |-------------------------------||
 |-------------------------------||
 |-------------------------------||
 |----------------------0-10\-0--||
 |----------------------0-----0--||

Chorus
$
[Gsus2]Gtrs II, III[D/F#] [Dsus2]
E S S S S E S E S E S S S S E S E S E S S S S E S E S
| | | | | | | | | | | | | | | | | | | | | | | | | | |
[/] [/] [/] [/] [/] [/] [/] [/] [/] [/] [/] [/] [/] [/] [/] [/] [/] [/] [/] [/] [/] [/] [/] [/] [/] [/] [/] 
Gtr I
E S S S S E S S S S E S S S S E S S S S E S S S S E S S S S
 
 ||----------------------------|-------------------------|---------------------|
 ||o--------------10-----------|-------------10----------|-----------5---------|
 ||-----0-------0----0-------0-|----0------0----0------0-|---0-----0---0-----0-|
 ||--12---12-----------12------|-12---12----------12-----|-7---7---------7-----|
 ||o-10------10-----------10---|--9------9-----------9---|-5-----5---------5---|
 ||----------------------------|-------------------------|---------------------|

To Coda
[A/C#]E S S S S E S E S [Gsus2] H. [D/F#] Q. [A/C#]Q.
| | | | | | | | | | | |
[/] [/] [/] [/] [/] [/] [/] [/] [/] [/] [/] [/] 
E S S S S E S S S S H. Q +E E. +S +E
 
 |----------------------||----------|-------------------------||
 |-----------5---------o||-10-------|-10---(10)\--------------||
 |---0-----0---0-----0--||--0-------|--0----(0)\--------------||
 |-7---7---------7------||-12-------|-12---(12)\--------------||
 |-4-----4---------4---o||-10-------|--9----(9)\--------------||
 |----------------------||----------|------------2b3==(2)r(2)-||

Interlude
[B]Gtr I[G6]
E S S E S +S S S E E S S S S E S S S S
 
 |------------------------|------------------------|
 |------------------------|------------------------|
 |------------------------|------------0-----11h12-|
 |------------------------|----------0---0-0--0----|
 |-6---7-9-9b10r(9)---7-6-|-7---9h10---------------|
 |-0-0-----0--------0-----|-8-8--------------------|

[D] E S S S S [A] E S S S S [Bsus2] E S S S S E S S S S
 
 |-----------------------------|----------------------------||
 |-----------------------------|----------------------------||
 |-11---12p11------------------|----------------------------||
 |--0-0-------12-11---12p11----|-11---11---11-11---11-11----||
 |----------------0-0-------12-|-14---14---14-14---14-14----||
 |-----------------------------|--0-0----0-------0-------0--||

Verse 2
Gtr[B] I[G6]
E S S E S +S S S E E S S S S E S S S S
 
 |-----------------------------|--------------------------------|
 |-----------------------------|--------------------------------|
 |-----------------------------|-------------------0------11h12-|
 |-----------------------------|---------------0------0-0--0----|
 |-----6----7-9-9b10r(9)---7-6-|-----7----9h10------------------|
 |-----0--0-----0--------0-----|-----8--8-----------------------|

|
| Gtr IV
| ~~~~~~~~~~~~~~~~~
| A H. A Q. +E. S S S
 
 |-----------------------------|--------------------------14-15-|
 |-12s16-----------------------|-16h17-----------(17)---x-------|
 |-----------------------------|--------------------------------|
 |-----------------------------|--------------------------------|
 |-----------------------------|--------------------------------|
 |-----------------------------|--------------------------------|

[D] E S S S S [A] E S S S S
 
 |-------------------------------|
 |-------------------------------|
 |-11----14p11-------------------|
 |--0--0-------12-11----12p11----|
 |-----------------0--0-------12-|
 |-------------------------------|

|
| E. S E E. S E
 
 |-14----15-14----------14-------|
 |----------------17-------17----|
 |-------------------------------|
 |-------------------------------|
 |-------------------------------|
 |-------------------------------|

[Bsus2]Gtr I[B]
E S S S S E S S S S E S S E S +S S S E
 
 |--------------------------------|-----------------------------|
 |--------------------------------|-----------------------------|
 |--------------------------------|-----------------------------|
 |-11---11-------11-11----11-11---|-----------------------------|
 |-14---14-------14-14----14-14---|-----6----7-9-9b10r(9)---7-6-|
 |--0-0-----0-----------0-------0-|-----0--0-----0--------0-----|

|
| Gtr IV
| ~~ ~~~
| Q E Q. A H.
 
 |---------17b19----17------------|-----------------------------|
 |-16-----------------------------|-12s16-----------------------|
 |--------------------------------|-----------------------------|
 |--------------------------------|-----------------------------|
 |--------------------------------|-----------------------------|
 |--------------------------------|-----------------------------|

|
| Gtr V
| ~~~ ~~~
| Q E Q. A H.
 
 |---------17b19----17------------|-----------------------------|
 |--------------------------------|-----------------------------|
 |--------------------------------|-----------------------------|
 |--------------------------------|--9s13-----------------------|
 |--------------------------------|-----------------------------|
 |--------------------------------|-----------------------------|

[G6] E S S S S E S S S S
 
 |------------------------------------|
 |------------------------------------|
 |-----------------------0------11h12-|
 |-------------------0------0-0--0----|
 |-----7-----9h=10--------------------|
 |-----8--8---------------------------|

|
| ~~~~~~~~~~~~~~~~~~~~~
| a Q. +E. S S S
 
 |------------------------------14-15-|
 |-16h17---------------(17)---x-------|
 |------------------------------------|
 |------------------------------------|
 |------------------------------------|
 |------------------------------------|

|
| ~~~~~~~~~~~~~~~~~~~~~
| a E. S +S S Q S S
 
 |------------------------------------|
 |------------------------------15-17-|
 |------------------------------------|
 |-13h14----14-(14)-14--14------------|
 |------------------------------------|
 |------------------------------------|

[D] E S S S S [A] E S S S S [Bsus2] E S S S S E S S S S
 
 |-------------------------------|----------------------------------|
 |-------------------------------|----------------------------------|
 |-11----12p11-------------------|----------------------------------|
 |--0--0-------12-11----12p11----|-11-----11----11--11------11-11---|
 |-----------------0--0-------12-|-14-----14----14--14------14-14---|
 |-------------------------------|--0---0-----0-----------0-------0-|

|
| ~~~~~~~~~~~~~~~~~~~~~
| E. S E E. S E Q. +Q E
 
 |-14----15-14----------14-------|----------------------------------|
 |----------------17-------17----|-16--------------(16)\-------12S==|
 |-------------------------------|----------------------------------|
 |-------------------------------|----------------------------------|
 |-------------------------------|----------------------------------|
 |-------------------------------|----------------------------------|

|
| E. S E E. S E E S S S S E S S S S
 
 |-------------------------------|---------0-----0-----------0----0-|
 |-15----17-15----14----15-14----|-12--12----12-----12---12----12---|
 |-------------------------------|----------------------------------|
 |-------------------------------|----------------------------------|
 |-------------------------------|----------------------------------|
 |-------------------------------|----------------------------------|

D.S. al Coda
[Bm] E S S S S E S S S S
 
 |------------------------------------------||
 |------------------------------------------||
 |------------------------------------------||
 |-12--------12-12----12-12-------12-12-----||
 |-14--------14-14----14-14-------14-14-----||
 |--0---------------0-----------0--------0--||

|
| S S S S S S S S S S S S
 
 |------------------------------------------||
 |-17b19==17-17-17-17-17-17-17-17-17-17-17r-||
 |------------------------------------------||
 |------------------------------------------||
 |------------------------------------------||
 |------------------------------------------||

|
| S S S S S S S S S S S S
 
 |------------------------------------------||
 |-12b14==12-12-12-12-12-12-12-12-12-12-12r-||
 |------------------------------------------||
 |------------------------------------------||
 |------------------------------------------||
 |------------------------------------------||

Interlude
&
[B5]Gtrs I, II, III[G6add2/B]
>
H. +H. +H.
 
 |---------|----------|----------------------------|
 |---------|----------|----------------------------|
 |---------|----------|----------------------------|
 |---------|----------|----------------------------|
 |---------|----------|----------------------------|
 |-0-------|-(0)------|-(0)------------------------|

|
| Gtr VI
| W W S S S E. S S S E.
 
 |---------|----------|-----------12-----------12--|
 |---------|----------|-----10-----------10--------|
 |---------|----------|-12-----12-----12----12-----|
 |---------|----------|----------------------------|
 |---------|----------|----------------------------|
 |---------|----------|----------------------------|

+H. [B7]+H. +H.
 
 |-----------|----------------------------|---------|
 |-----------|----------------------------|---------|
 |-----------|----------------------------|---------|
 |-----------|----------------------------|---------|
 |-----------|----------------------------|---------|
 |--(0)------|-(0)------------------------|--(0)----|

|
| +H. S S S E. S S S E. +H.
 
 |-(12)------|-----------11-----------11--|-(11)----|
 |-----------|-----10-----------10--------|---------|
 |-----------|-11-----11-----11----11-----|---------|
 |-----------|----------------------------|---------|
 |-----------|----------------------------|---------|
 |-----------|----------------------------|---------|

[G6add2/B]+H. +H.
 
 |----------------------------|-----------|
 |----------------------------|-----------|
 |----------------------------|-----------|
 |----------------------------|-----------|
 |----------------------------|-----------|
 |-(0)------------------------|--(0)------|

|
| S S S E. S S S E. +H.
 
 |-----------12-----------12--|-(12)------|
 |-----10-----------10--------|-----------|
 |-12-----12-----12----12-----|-----------|
 |----------------------------|-----------|
 |----------------------------|-----------|
 |----------------------------|-----------|

[B7]+H. +H.
 
 |----------------------------|---------|
 |----------------------------|---------|
 |----------------------------|---------|
 |----------------------------|---------|
 |----------------------------|---------|
 |-(0)------------------------|--(0)----|

|
| S S S E. S S S E. +H.
 
 |-----------11-----------11--|-(11)----|
 |-----10-----------10--------|---------|
 |-11-----11-----11----11-----|---------|
 |----------------------------|---------|
 |----------------------------|---------|
 |----------------------------|---------|

[D5]Gtrs[C5] II[B5], III[C5] [B5] [C5]
PM---|
S S S E S S S S E S W
 
 |--------------------------------|-----------|
 |--------------------------------|-----------|
 |--------------------------------|-----------|
 |--------------------------------|-----------|
 |--5---3--2-----------------3--3-|-----------|
 |------------0--0--0--1--0--1--1-|-----------|

|
| Gtr I
| +H. +H.
 
 |--------------------------------|-----------|
 |--------------------------------|-----------|
 |--------------------------------|-----------|
 |--------------------------------|-----------|
 |--------------------------------|-----------|
 |-(0)----------------------------|--(0)------|

|
| Gtr VI
| S S S E. S S S E. +H.
 
 |-----------12-------------12----|-(12)------|
 |-----10-------------10----------|-----------|
 |-12-----12-------12----12-------|-----------|
 |--------------------------------|-----------|
 |--------------------------------|-----------|
 |--------------------------------|-----------|

[D5] [C5] [B5] PM[C5]---[B5]|
S S S E S S S S E S W
 
 |--------------------------------|---------|
 |--------------------------------|---------|
 |--------------------------------|---------|
 |--------------------------------|---------|
 |--5---3--2-----------------2--2-|---------|
 |------------0--0--0--1--0--0--0-|---------|

|
| +H. +H.
 
 |--------------------------------|---------|
 |--------------------------------|---------|
 |--------------------------------|---------|
 |--------------------------------|---------|
 |--------------------------------|---------|
 |-(0)----------------------------|--(0)----|

|
| S S S E. S S S E. +H.
 
 |-----------11-------------11----|-(11)----|
 |-----10-------------10----------|---------|
 |-11-----11-------11----11-------|---------|
 |--------------------------------|---------|
 |--------------------------------|---------|
 |--------------------------------|---------|

[D5] [C5] [B5] PM[C5]---[B5]|[C5]
S S S E S S S S E S W
 
 |--------------------------------|-----------|
 |--------------------------------|-----------|
 |--------------------------------|-----------|
 |--------------------------------|-----------|
 |--5---3--2-----------------3--3-|-----------|
 |------------0--0--0--1--0--1--1-|-----------|

|
| +H. +H.
 
 |--------------------------------|-----------|
 |--------------------------------|-----------|
 |--------------------------------|-----------|
 |--------------------------------|-----------|
 |--------------------------------|-----------|
 |-(0)----------------------------|--(0)------|

|
| S S S E. S S S E. +H.
 
 |-----------12-------------12----|-(12)------|
 |-----10-------------10----------|-----------|
 |-12-----12-------12----12-------|-----------|
 |--------------------------------|-----------|
 |--------------------------------|-----------|
 |--------------------------------|-----------|

[D5] [C5] [B5] PM[C5]---[B5]| TP
S S S E S S S S E S Q. Q.
 
 |--------------------------------|--------------|
 |--------------------------------|--------------|
 |--------------------------------|--------------|
 |--------------------------------|--------x\----|
 |--5---3--2-----------------2--2-|--------x\----|
 |------------0--0--0--1--0--0--0-|---0----------|

|
| +H. +H.
 
 |--------------------------------|--------------|
 |--------------------------------|--------------|
 |--------------------------------|--------------|
 |--------------------------------|--------------|
 |--------------------------------|--------------|
 |-(0)----------------------------|--(0)---------|

|
| S S S E. S S S E. +H.
 
 |-----------11-------------11----|-(11)---------|
 |-----10-------------10----------|--------------|
 |-11-----11-------11----11-------|--------------|
 |--------------------------------|--------------|
 |--------------------------------|--------------|
 |--------------------------------|--------------|

[D5C5B5]Gtrs II, III[C5B5C5] [B5] [E5] [C5] [D5C5B5] [C5B5C5]
 
 PM--| PM--| PM--|

S S S E S S S S E S S S S S S S S S S S S S S S S E S S S S E S
 
 ||----------------------|-------------------------|----------------------|
 ||o---------------------|-------------------------|----------------------|
 ||------------------5-5-|-------4-4s9-9s5-5-5-5-5-|-----------------5-5--|
 ||------------------x-x-|-------x-x---x---x-x-x-x-|-----------------x-x--|
 ||o-5-3-2-----------3-3-|-------2-2s7-7s3-3-3-3-3-|-5-3-2-----------3-3--|
 ||--------0-0-0-1-0-----|-0-0-0-------------------|-------0-0-0-1-0------|

1. 2.
[B5]PM--| [E5] [C5] [B5]PM---|[E5] [C5]
S S S S S S S S S S S S S S S S S S S S S S S S
 
 |--------------------------||----------------------------||
 |-------------------------o||----------------------------||
 |-------4-4s9-9s5-5-5-5-5--||--------4-4s9-9s5-5-5--5--5-||
 |-------x-x---x---x-x-x-x--||--------x-x---x---x-x--x--x-||
 |-------2-2s7-7s3-3-3-3-3-o||--------2-2s7-7s3-3-3--3--3-||
 |-0-0-0--------------------||-0--0-0---------------------||

|
| Gtr IV
| W Q. E S S E
 
 |--------------------------||----------------------------||
 |-------------------------o||--------------------x-------||
 |--------------------------||--------------------x-------||
 |--------------------------||----------------------------||
 |-------------------------o||----------------------14\---||
 |--------------------------||----------------------------||

Guitar Solo
[B]Gtrs II, III[G6]
E S S E S +S S S E E S S S S E S S S S
 
 |------------------------------------|-----------------------------------|
 |------------------------------------|-----------------------------------|
 |------------------------------------|--------------------0------11h==12-|
 |------------------------------------|-----------------0----0-0---0------|
 |--6--------7--9------9b10r(9)---7-6-|---7-----9h=10---------------------|
 |--0-----0------------0--------0-----|---8--8----------------------------|

|
| Gtr IV
| ~~~ ~~
| E. S +T T S S E S E E. S +S S Q +E
 
 |------------------------------------|-/10-------------------------------|
 |-10-------10--------------------x-0-|-/12----12-(12)--------------------|
 |--9b11=====9r(9)p7---7h====9----x-0-|----------------10-----------------|
 |-------------------9----------------|-------------------12-----(12)\----|
 |------------------------------------|-----------------------------------|
 |------------------------------------|-----------------------------------|

[D] E S S S S [D] E S S S S
 
 |-----------------------------------------------|
 |-----------------------------------------------|
 |-11-------------14p==11------------------------|
 |--0---0-----------------12-11-------12p=11-----|
 |----------------------------0----0---------12--|
 |-----------------------------------------------|

|
 
 | |-----3------|

| S S S +S S S S S S S S S S
 
 |-----------------------------------------------|
 |-----------------------------------------------|
 |--7-9-9pb11r(9)p===7------------[7]-[6]-----9--|
 |----------------------9p=0--7-9----------7-----|
 |-----------------------------------------------|
 |-----------------------------------------------|

[Bsus2] E S S S S E S S S S
 
 |------------------------------------------|
 |------------------------------------------|
 |------------------------------------------|
 |-11----11---11---11---------11---11-------|
 |-14----14---14---14---------14---14-------|
 |--0--0----0-------------0-------------0---|

|
| ~~~
 
 | |-3--| |---------9:6---------|

| E. S E S S S S S S S S S S
 
 |------------------------------------------|
 |---------------7-10p7---------------------|
 |--8-------------------8---8---------------|
 |--------7s9-------------9-----------------|
 |-------------------------------9--7p6s==2-|
 |------------------------------------------|

[B]E S S E Q. [G6]E S S S S E S S S S
 
 |-----------------------------|------------------------------------|
 |-----------------------------|------------------------------------|
 |-----------------------------|-------------------0-------11h=12---|
 |-----------------------------|--------------0-------0--0--0-------|
 |-6----7----------------------|---7-----9h10-----------------------|
 |-0--0------------------------|---8-8------------------------------|

|
| E. S +S +S +E S E S A E S A E S A E S E +S
 
 |-----------------------------|--------------5------10-------------|
 |-----------------------0---0-|-----3------------------------------|
 |-2---------------------0---0-|------------------------------------|
 |-------------------------4---|-4s5---5s7------7s12----11----(11)\-|
 |------2-(2)b3==(2)r(2)-------|------------------------------------|
 |-----------------------------|------------------------------------|

[D] E S S S S [A] E S S S S
 
 |------------------------------------------------------------|
 |------------------------------------------------------------|
 |---11---------12p11-----------------------------------------|
 |----0---0-------------12------11-------------12p11----------|
 |-------------------------------0-----0----------------12----|
 |------------------------------------------------------------|

|
| a S.T T T a S. T T T a S. T T T a S. T T T
 
 |-5s=7p5-----7s10p===7------10s12p10-------12s14p===12-------|
 |--------7p5-----------10p7----------12p10-------------14p12-|
 |------------------------------------------------------------|
 |------------------------------------------------------------|
 |------------------------------------------------------------|
 |------------------------------------------------------------|

[Bsus2] E S S S S E S S S S
 
 |-------------------------------------------|
 |-------------------------------------------|
 |-------------------------------------------|
 |----11----11----11-11----------11-11-------|
 |----14----14----14-14----------14-14-------|
 |-----0--0-----0-----------0-------------0--|

|
| a E. S S S S S E E
 
 |-12s19----19-19p17-19-19-19b22----19b22----|
 |-------------------------------------------|
 |-------------------------------------------|
 |-------------------------------------------|
 |-------------------------------------------|
 |-------------------------------------------|

[D] E S S S S [A] E S S S S
 
 |---------------------------------------------|
 |---------------------------------------------|
 |-11------14p=====11--------------------------|
 |--0----0-------------12-11--------12p=11-----|
 |-------------------------0------0---------12-|
 |---------------------------------------------|

|
| E. S +E S +E. +S S
 
 |-19b22---19b22==(19)----19r(19)------(19)--0-|
 |---------------------------------------------|
 |---------------------------------------------|
 |---------------------------------------------|
 |---------------------------------------------|
 |---------------------------------------------|

[E5]  
 
 PM--------------------|

S S S S S S S S S S S S
 
 |--------------------------------------------||
 |--------------------------------------------||
 |--------------------------------------------||
 |----9--9------9---9--9--9-9--9-----9--9-9-0-||
 |----7--7------7---7--7--7-7--7-----7--7-7-0-||
 |--------------------------------------------||

|
| a S S +S S S S S S +S S S S
 
 |-7s12-11b12r(11)----------------------------||
 |-----------------12-------------------------||
 |--------------------14s11-9-[8]b9r(8)-------||
 |--------------------------------------9-7---||
 |------------------------------------------9-||
 |--------------------------------------------||

Chorus
[Gsus2]Gtrs II, III[D/F#]
E S S S S E S E S E S S S S E S E S
| | | | | | | | | | | | | | | | | |
[/] [/] [/] [/] [/] [/] [/] [/] [/] [/] [/] [/] [/] [/] [/] [/] [/] [/] 
Gtr IV
S S S S S S Q E E S S E E S S S S
 
 |----------------------------0---|-------------------------|
 |----------------------------x---|----------------3------5-|
 |----------14----------------x---|-------0-----------0-----|
 |----12-------------12------14---|--4-4----4----4------4---|
 |-10----10----10-10--------------|-------------------------|
 |--------------------------------|-------------------------|

|
| Gtr I
| E S S S S E S S S S E S S S S E S S S S
 
 |--------------------------------|-------------------------|
 |-------------------10-----------|-------------10----------|
 |--------0--------0----0-------0-|----0------0----0------0-|
 |-12-------12------------12------|-12---12----------12-----|
 |-10----------10------------10---|--9------9-----------9---|
 |--------------------------------|-------------------------|

[Dsus2]E S S S S E S E S [A/C#]E S S S S E S E S
| | | | | | | | | | | | | | | | | |
[/] [/] [/] [/] [/] [/] [/] [/] [/] [/] [/] [/] [/] [/] [/] [/] [/] [/] 
E. S +E E. S +E E. S +E E. S +E
 
 |---------------------------|-----------------------------|
 |-------------------5-(5)---|-----------------------------|
 |--------------7------------|--------------2----4-(4)-----|
 |------7-(7)----------------|------2-(2)------------------|
 |-5-------------------------|-4---------------------------|
 |---------------------------|-----------------------------|

|
| E S S S S E S S S S E S S S S E S S S S
 
 |---------------------------|-----------------------------|
 |--------------5------------|--------------5--------------|
 |----0-------0----0-------0-|----0-------0----0-------0---|
 |-7----7------------7-------|-7----7------------7---------|
 |-5-------5------------5----|-4-------4------------4------|
 |---------------------------|-----------------------------|

[Gsus2] E S S S S E S E S [D/F#] E S S S S E S E S
| | | | | | | | | | | | | | | | | |
[/] [/] [/] [/] [/] [/] [/] [/] [/] [/] [/] [/] [/] [/] [/] [/] [/] [/] 
S S S S S S Q E E S S E E S S S S
 
 |----------------------------0---|-------------------------|
 |----------------------------x---|----------------3------5-|
 |----------14----------------x---|-------0-----------0-----|
 |----12-------------12------14---|--4-4----4----4------4---|
 |-10----10----10-10--------------|-------------------------|
 |--------------------------------|-------------------------|

|
| E S S S S E S S S S E S S S S E S S S S
 
 |--------------------------------|-------------------------|
 |-------------------10-----------|-------------10----------|
 |--------0--------0----0-------0-|----0------0----0------0-|
 |-12-------12------------12------|-12---12----------12-----|
 |-10----------10------------10---|--9------9-----------9---|
 |--------------------------------|-------------------------|

[Dsus2]E S S S S E S E S [A/C#]E S S S S E S E S
| | | | | | | | | | | | | | | | | |
[/] [/] [/] [/] [/] [/] [/] [/] [/] [/] [/] [/] [/] [/] [/] [/] [/] [/] 
E. S +E E. S +E E. S +E E. S +E
 
 |---------------------------|-----------------------------|
 |-------------------5-(5)---|-----------------------------|
 |--------------7------------|--------------2----4-(4)-----|
 |------7-(7)----------------|------2-(2)------------------|
 |-5-------------------------|-4---------------------------|
 |---------------------------|-----------------------------|

|
| E S S S S E S S S S E S S S S E S S S S
 
 |---------------------------|-----------------------------|
 |--------------5------------|--------------5--------------|
 |----0-------0----0-------0-|----0-------0----0-------0---|
 |-7----7------------7-------|-7----7------------7---------|
 |-5-------5------------5----|-4-------4------------4------|
 |---------------------------|-----------------------------|

[Gsus2] E S S S S E S E S
| | | | | | | | |
[/] [/] [/] [/] [/] [/] [/] [/] [/]  
S S S S S S E S S S S
 
 |----------------------10-------12-|
 |----------10-------------10-------|
 |-12-12-12----12-12-12-------12----|
 |----------------------------------|
 |----------------------------------|
 |----------------------------------|

|
| E S S S S E S S S S
 
 |----------------------------------|
 |-------------------10-------------|
 |--------0--------0-----0--------0-|
 |-12-------12-------------12-------|
 |-10----------10-------------10----|
 |----------------------------------|

[D/F#] E S S S S E S E S [Dsus2]E S S S S E S E S
| | | | | | | | | | | | | | | | | |
[/] [/] [/] [/] [/] [/] [/] [/] [/] [/] [/] [/] [/] [/] [/] [/] [/] [/] 
E S S S S E S S S S E S S E E S S E
 
 |-------------------10-------12-|---------12--------12------|
 |----------------------10-------|------15--------15----15---|
 |-11-12-11-11-11-11-------11----|---14----------------------|
 |-------------------------------|-0------------0------------|
 |-------------------------------|---------------------------|
 |-------------------------------|---------------------------|

|
| E S S S S E S S S S E S S S S E S S S S
 
 |-------------------------------|---------------------------|
 |----------------10-------------|--------------5------------|
 |-----0--------0-----0--------0-|----0-------0----0-------0-|
 |-12----12-------------12-------|-7-----7------------7------|
 |--9--------9--------------9----|-5--------5------------5---|
 |-------------------------------|---------------------------|

[A/C#] E S S S S E S E S [Gsus2] E S S S S E S E S
| | | | | | | | | | | | | | | | | |
[/] [/] [/] [/] [/] [/] [/] [/] [/] [/] [/] [/] [/] [/] [/] [/] [/] [/] 
E E E E E E S S E. S E S S S S
 
 |-------------9tr10-----------|-----------------------10-------12-|
 |--------10---------12---10---|--------------------------10-------|
 |----9------------------------|-12-12-12--------12-12-------12----|
 |-11--------------------------|-----------------------------------|
 |-----------------------------|-----------------------------------|
 |-----------------------------|-----------------------------------|

|
| E S S S S E S S S S E S S S S E S S S S
 
 |-----------------------------|-----------------------------------|
 |-------------5---------------|--------------------10-------------|
 |----0------0--------0------0-|--------0---------0-----0--------0-|
 |--7---7---------------7------|-12--------12-------------12-------|
 |--4------4---------------4---|-10-----------10-------------10----|
 |-----------------------------|-----------------------------------|

[D/F#] Q. [A/C#] Q.
| |
[/] [/]  
E S S S S S S S T T S S
 
 |-----------------14--------------------||
 |--------10-----------15-14-14h15p14-0--||
 |-11--11----11-11-----------------------||
 |---------------------------------------||
 |---------------------------------------||
 |---------------------------------------||

|
| E S S S S E S S S S
 
 |---------------------------------------||
 |---------------------------------------||
 |------0--------0---------0----------0--||
 |-12-----12--------7---------7----------||
 |--9---------9-----4---------------4----||
 |---------------------------------------||

Outro
[D5C5B5]Gtrs II, III[C5B5C5] [B5] [E5] [C5]
PM--| PM--|
S S S E S S S S E S S S S S S S S S S S S S
 
 ||----------------------|-------------------------|
 ||o---------------------|-------------------------|
 ||------------------5-5-|-------4-4s9-9s5-5-5-5-5-|
 ||------------------x-x-|-------x-x---x---x-x-x-x-|
 ||o-5-3-2-----------3-3-|-------2-2s7-7s3-3-3-3-3-|
 ||--------0-0-0-1-0-----|-0-0-0-------------------|

[D5C5B5] PM[C5B5C5]--| [B5]PM--|[E5] [C5]
S S S E S S S S E S S S S S S S S S S S S S
 
 |---------------------|----------------------------||
 |---------------------|---------------------------o||
 |-----------------5-5-|-------4-4s9-9s5-5-5-5-5----||
 |-----------------x-x-|-------x-x---x---x-x-x-x----||
 |-5-3-2-----------3-3-|-------2-2s7-7s3-3-3-3-3---o||
 |-------0-0-0-1-0-----|-0-0-0----------------------||

[G6add2/B]Gtrs II, III
>
H. +H.
 
 |----------------------------|-----------|
 |----------------------------|-----------|
 |----------------------------|-----------|
 |----------------------------|-----------|
 |----------------------------|-----------|
 |--0-------------------------|--(0)------|

|
| Gtr VI
| S S S E. S S S E. +H.
 
 |-----------12-----------12--|-(12)------|
 |-----10-----------10--------|-----------|
 |-12-----12-----12----12-----|-----------|
 |----------------------------|-----------|
 |----------------------------|-----------|
 |----------------------------|-----------|

[B7]+H. +H
 
 |----------------------------|---------|
 |----------------------------|---------|
 |----------------------------|---------|
 |----------------------------|---------|
 |----------------------------|---------|
 |-(0)------------------------|--(0)----|

|
| S S S E. S S S E. +H.
 
 |-----------11-----------11--|-(11)----|
 |-----10-----------10--------|---------|
 |-11-----11-----11----11-----|---------|
 |----------------------------|---------|
 |----------------------------|---------|
 |----------------------------|---------|

[G6add2/B]+H. +H.
 
 |----------------------------|-----------|
 |----------------------------|-----------|
 |----------------------------|-----------|
 |----------------------------|-----------|
 |----------------------------|-----------|
 |-(0)------------------------|--(0)------|

|
| S S S E. S S S E. +H.
 
 |-----------12-----------12--|-(12)------|
 |-----10-----------10--------|-----------|
 |-12-----12-----12----12-----|-----------|
 |----------------------------|-----------|
 |----------------------------|-----------|
 |----------------------------|-----------|

[B7]+H. +H
 
 |----------------------------|---------|
 |----------------------------|---------|
 |----------------------------|---------|
 |----------------------------|---------|
 |----------------------------|---------|
 |-(0)------------------------|--(0)----|

|
| S S S E. S S S E. +H.
 
 |-----------11-----------11--|-(11)----|
 |-----10-----------10--------|---------|
 |-11-----11-----11----11-----|---------|
 |----------------------------|---------|
 |----------------------------|---------|
 |----------------------------|---------|

H.=H
[G6add2/B]+H. +H.
 
 |----------------------------|-----------|
 |----------------------------|-----------|
 |----------------------------|-----------|
 |----------------------------|-----------|
 |----------------------------|-----------|
 |-(0)------------------------|--(0)------|

|
| S S S E. S S S E. +H.
 
 |-----------12-----------12--|-(12)------|
 |-----10-----------10--------|-----------|
 |-12-----12-----12----12-----|-----------|
 |----------------------------|-----------|
 |----------------------------|-----------|
 |----------------------------|-----------|

[B7]+H. +H
 
 |----------------------------|---------*|
 |----------------------------|---------*|
 |----------------------------|---------*|
 |----------------------------|---------*|
 |----------------------------|---------*|
 |-(0)------------------------|--(0)----*|

|
| S S S E. S S S E. +H.
 
 |-----------11-----------11--|-(11)----*|
 |-----10-----------10--------|---------*|
 |-11-----11-----11----11-----|---------*|
 |----------------------------|---------*|
 |----------------------------|---------*|
 |----------------------------|---------*|

Duration Legend
 
 ---------------
 W - whole; H - half; Q - quarter; E - 8th; S - 16th; T - 32nd; X - 64th; a - acciaccatura

+ - note tied to previous; . - note dotted; .. - note double dotted
Uncapitalized letters represent notes that are staccato (1/2 duration)
Irregular groupings are notated above the duration line
Duration letters will always appear directly above the note/fret number it represents the
duration for. Duration letters with no fret number below them represent rests. Multi-
bar rests are notated in the form Wxn, where n is the number of bars to rest for. Low
melody durations appear below the staff
Tablature Legend
 
 ----------------

h - hammer-on
p - pull-off
b - bend
pb - pre-bend
r - bend release (if no number after the r, then release immediately)
/\ - slide into or out of (from/to "nowhere")
s - legato slide
S - shift slide
- natural harmonic
(n) - artificial harmonic
n(n) - tapped harmonic
~ - vibrato
tr - trill
T - tap
TP - trem. picking
PM - palm muting
\n/ - tremolo bar dip; n = amount to dip
\n - tremolo bar down
n/ - tremolo bar up
/n\ - tremolo bar inverted dip
= - hold bend; also acts as connecting device for hammers/pulls
- volume swell (louder/softer)
x - on rhythm slash represents muted slash
o - on rhythm slash represents single note slash
Misc Legend
 
 -----------

| - bar
|| - double bar
||o - repeat start
o|| - repeat end
*| - double bar (ending)
: - bar (freetime)
$ - Segno
& - Coda
Tempo markers - = BPM(8/16=s8/s16), where s8 = swing 8ths, s16 = swing 16ths
***************************************************************************************
* Generated using Power Tab Editor by Brad Larsen - http://powertab.guitarnetwork.org *
***************************************************************************************

Important: The song above is NOT stored on the Chordie server. The original song is hosted at www.guitartabs.cc. Chordie works as a search engine and provides on-the-fly formatting. Chordie does not index songs against artists'/composers' will. To remove this song please click here.

Text color:
Chord color:
Chord grids: 
Font size:    
Page size: 

A A/C# B B5 B7 Bm Bsus2 C5 D D/F# D5 Dsus2 E5 G6 Gsus2
Rate #6 of 8 versions

Login - add to songbook

SHARE PAGE  




You need to log in to post comments