Guitar Tabs, Chords and Lyrics
Update 25:10. 13:00. Site is back up running again. Songbooks are recovered. Woring on getting search back up..


Burn It Down  Alter Bridge

Gtr I (E A D G B E) - 'electric clean'
Gtr II (E A D G B E) - 'acoustic 2'
Gtr III (E A D G B E) - 'electric distorted'
Intro
Q=68
[Badd11] [D6sus4] [Aadd9] [Cmaj7] [F#7add11] 
[4/4] Gtr I
Q E. S S S E S S S S Q E. S S S S S S E S
 
 ||--^0---------------0-----|-------0-0-0-------0-!0-|
 ||o-^0--0--0-0-0-0-----0---|----0--0-0-0---------!0-|
 ||--^8--8--8-0-0-7-------6-|-6--6--6-0-0-----5---!3-|
 ||--^9--9--9-0-0-7---------|-7--7--7-------5-----!4-|
 ||o-^9--9--9-----5-5-------|-7--7--------3-------!4-|
 ||--^7--7--7---------------|-5--5----------------!2-|

+Q E S S S S S S S S S S Q E. [F#]S +S [F#add11]S S S E E
 
 |-!(0)------0-----------0-----|-------2-(2)-------------||
 |-!(0)--0-----0-----------0---|----0--2-(2)-0---0------o||
 |-!(3)--3-------3-----------3-|-3--3--3-(3)-3---3-3-----||
 |-!(4)--4---------------------|-4--4--4-(4)-4---4-4-4/--||
 |-!(4)--4-4-------------------|-4--4--4-(4)-4---4-x-4/-o||
 |-!(2)--2-2-------0-2-3-------|-2--2--2-(2)-2-0-2-3-----||

Verse
[Badd11] Q E. S S [D6sus4]S E S S S S [Aadd9]Q E. S S S [Cmaj7]S S S E [F#7add11] S
 
 ||--^0---------------0-----|-------0-0-0-------0-!0-|
 ||o-^0--0--0-0-0-0-----0---|----0--0-0-0---------!0-|
 ||--^8--8--8-0-0-7-------6-|-6--6--6-0-0-----5---!3-|
 ||--^9--9--9-0-0-7---------|-7--7--7-------5-----!4-|
 ||o-^9--9--9-----5-5-------|-7--7--------3-------!4-|
 ||--^7--7--7---------------|-5--5----------------!2-|

+Q E S S S S S S S S S S Q E. [F#]S +S [F#add11]S S S E E 4x
 
 |-!(0)------0-----------0-----|-------2-(2)-------------||
 |-!(0)--0-----0-----------0---|----0--2-(2)-0---0------o||
 |-!(3)--3-------3-----------3-|-3--3--3-(3)-3---3-3-----||
 |-!(4)--4---------------------|-4--4--4-(4)-4---4-4-4/--||
 |-!(4)--4-4-------------------|-4--4--4-(4)-4---4-x-4/-o||
 |-!(2)--2-2-------0-2-3-------|-2--2--2-(2)-2-0-2-3-----||

Chorus
[Badd11]Gtrs I, II[G6] [D6add9] [Aadd9]
Q S S S S S S E +S S S S Q E. S S S E +S S S S
 
 |-0--0-0-0-0-0-0-0-(0)-0-0---|-0--0--0-0-0-0-(0)-0-0-0-|
 |-0--0-0-0-0-0-0-0-(0)-0-0---|-0--0--0-0-0-0-(0)-0-0-0-|
 |-8--8-8-8-8-8-8-8-(8)-8-8---|-4--4--4-4-7-7-(7)-7-6-6-|
 |-9--9-9-9-9-9-9-9-(9)-9-9---|-5--5--5-5-7-7-(7)-7-7-7-|
 |-9--9-9-9-9-9-9-9-(9)-9-9-5-|-5--5--5-5-5-5-(5)-5-0-0-|
 |-7--7-7-7-7-7-7-7-(7)-7-7-3-|-3--3--3-3---------------|

[A]Q E. S S [Asus4]S E S [A]S S S [Badd11]Q E. S S S E +S S S S
 
 |-0--0------0-0-0-0-----|-0--0--0-0-0-0-(0)-0-0---|
 |-5--5------5-5-5-5-0-0-|-0--0--0-0-0-0-(0)-0-0---|
 |-6--6--6h7-7-7-7-6-0-8-|-8--8--8-8-8-8-(8)-8-8---|
 |-7--7--7---7-7-7-7-0-9-|-9--9--9-9-9-9-(9)-9-9---|
 |-0--0--0---0-0-0-0-0-9-|-9--9--9-9-9-9-(9)-9-9-5-|
 |---------------------7-|-7--7--7-7-7-7-(7)-7-7-3-|

[G6]Gtr I[D6add9] [Aadd9] [A]
Q E. S S S E +S S S S Q +E. T T S S S S E S S
 
 |-0--0--0-0-0-0-(0)-0-0-0-|-0---(0)---------------------||
 |-0--0--0-0-0-0-(0)-0-0-0-|-5---(5)-------------------0-||
 |-4--4--4-4-7-7-(7)-7-6-6-|-6---(6)-----5---5-7b9-5---0-||
 |-5--5--5-5-7-7-(7)-7-7-7-|-7---(7)-5h7---7---------0-0-||
 |-5--5--5-5-5-5-(5)-5-0-0-|-0---(0)-----------------0-0-||
 |-3--3--3-3---------------|-----------------------------||

|
| Gtr II
| >
| Q E. S S S E +S S S S H. Q
 
 |-0--0--0-0-0-0-(0)-0-0-0-|-0---------------------------||
 |-0--0--0-0-0-0-(0)-0-0-0-|-5---------------------------||
 |-4--4--4-4-7-7-(7)-7-6-6-|-6---------------------------||
 |-5--5--5-5-7-7-(7)-7-7-7-|-7---------------------------||
 |-5--5--5-5-5-5-(5)-5-0-0-|-0---------------------------||
 |-3--3--3-3---------------|-----------------------------||

Interlude
[Badd11]Gtr I[D6sus4] [Aadd9] [Cmaj7] [F#7add11]
Q E. S S S E S S S S Q E. S S S S S S E S
 
 |-^0---------------0-----|-------0-0-0-------0-!0-|
 |-^0--0--0-0-0-0-----0---|----0--0-0-0---------!0-|
 |-^8--8--8-0-0-7-------6-|-6--6--6-0-0-----5---!3-|
 |-^9--9--9-0-0-7---------|-7--7--7-------5-----!4-|
 |-^9--9--9-----5-5-------|-7--7--------3-------!4-|
 |-^7--7--7---------------|-5--5----------------!2-|

+Q E S S S S S S S S S S Q E. [F#]S +S [F#add11]S S S E E
 
 |-!(0)------0-----------0-----|-------2-(2)------------||
 |-!(0)--0-----0-----------0---|----0--2-(2)-0---0------||
 |-!(3)--3-------3-----------3-|-3--3--3-(3)-3---3-3----||
 |-!(4)--4---------------------|-4--4--4-(4)-4---4-4-4/-||
 |-!(4)--4-4-------------------|-4--4--4-(4)-4---4-x-4/-||
 |-!(2)--2-2-------0-2-3-------|-2--2--2-(2)-2-0-2-3----||

Verse
[Badd11] Q E. S S S [D6sus4]E S S S S [Aadd9]Q E. S S S [Cmaj7]S S S E [F#7add11] S
 
 ||--^0---------------0-----|-------0-0-0-------0-!0-|
 ||o-^0--0--0-0-0-0-----0---|----0--0-0-0---------!0-|
 ||--^8--8--8-0-0-7-------6-|-6--6--6-0-0-----5---!3-|
 ||--^9--9--9-0-0-7---------|-7--7--7-------5-----!4-|
 ||o-^9--9--9-----5-5-------|-7--7--------3-------!4-|
 ||--^7--7--7---------------|-5--5----------------!2-|

+Q E S S S S S S S S S S Q E. [F#]S +S [F#add11]S S S E E 3x
 
 |-!(0)------0-----------0-----|-------2-(2)-------------||
 |-!(0)--0-----0-----------0---|----0--2-(2)-0---0------o||
 |-!(3)--3-------3-----------3-|-3--3--3-(3)-3---3-3-----||
 |-!(4)--4---------------------|-4--4--4-(4)-4---4-4-4/--||
 |-!(4)--4-4-------------------|-4--4--4-(4)-4---4-x-4/-o||
 |-!(2)--2-2-------0-2-3-------|-2--2--2-(2)-2-0-2-3-----||

[Badd11] Q E. S S S [D6sus4]E S S S S [Aadd9]Q E. S S S [Cmaj7]S S S E [F#7add11] S
 
 |-^0---------------0-----|-------0-0-0-------0-!0-|
 |-^0--0--0-0-0-0-----0---|----0--0-0-0---------!0-|
 |-^8--8--8-0-0-7-------6-|-6--6--6-0-0-----5---!3-|
 |-^9--9--9-0-0-7---------|-7--7--7-------5-----!4-|
 |-^9--9--9-----5-5-------|-7--7--------3-------!4-|
 |-^7--7--7---------------|-5--5----------------!2-|

Gtr I
+Q E S S S S S S S S S S Q E. S +S S S S E E
 
 |-!(0)------0-----------0-----|------------2-(2)----------------||
 |-!(0)--0-----0-----------0---|-------0----2-(2)-0---0----------||
 |-!(3)--3-------3-----------3-|-3-----3----3-(3)-3---3-3--------||
 |-!(4)--4---------------------|-4-----4----4-(4)-4---4-4---4/---||
 |-!(4)--4-4-------------------|-4-----4----4-(4)-4---4-x---4/---||
 |-!(2)--2-2-------0-2-3-------|-2-----2----2-(2)-2-0-2-3--------||

|
| Gtr III
| Q E S S S S S S Q E S S E S S S S S S S S S S
 
 |-----------------------------|--------------------0-0-0-0-0--0-||
 |-----------------------------|--------------------0-0-0-0-0--0-||
 |-----------------------------|--------------------3-3-3-3-3----||
 |-----------------------------|--------------------4-4-4-4-4----||
 |---4---4-4-4-4-4-----4-------|-4-4-4-4--4-4--4--4-4-4-4-4-4----||
 |---2---2-2-2-2-2-0-2-3-------|-2-2-2-2--2-2--2--2-2-2-2-2-2----||

Chorus
[Badd11]Gtrs I, III[G6] [D6add9] [Aadd9]
Q S S S S S S E +S S S S Q E. S S S E +S S S S
 
 ||--0--0-0-0-0-0-0-0-(0)-0-0---|-0--0--0-0-0-0-(0)-0-0-0-|
 ||o-0--0-0-0-0-0-0-0-(0)-0-0---|-0--0--0-0-0-0-(0)-0-0-0-|
 ||--8--8-8-8-8-8-8-8-(8)-8-8---|-4--4--4-4-7-7-(7)-7-6-6-|
 ||--9--9-9-9-9-9-9-9-(9)-9-9---|-5--5--5-5-7-7-(7)-7-7-7-|
 ||o-9--9-9-9-9-9-9-9-(9)-9-9-5-|-5--5--5-5-5-5-(5)-5-0-0-|
 ||--7--7-7-7-7-7-7-7-(7)-7-7-3-|-3--3--3-3---------------|

[A]Q E. S S [Asus4]S E S [A]S S S 3x [Badd11]Q S S S S S S E +S S S S
 
 |-0--0------0-0-0-0------||-0--0-0-0-0-0-0-0-(0)-0-0---|
 |-5--5------5-5-5-5-0-0-o||-0--0-0-0-0-0-0-0-(0)-0-0---|
 |-6--6--6h7-7-7-7-6-0-8--||-8--8-8-8-8-8-8-8-(8)-8-8---|
 |-7--7--7---7-7-7-7-0-9--||-9--9-9-9-9-9-9-9-(9)-9-9---|
 |-0--0--0---0-0-0-0-0-9-o||-9--9-9-9-9-9-9-9-(9)-9-9-5-|
 |---------------------7--||-7--7-7-7-7-7-7-7-(7)-7-7-3-|

[G6]Q E. S S [D6add9]S E +S S [Aadd9]S S [A]W
 
 |-0--0--0-0-0-0-(0)-0-0-0-|-0----||
 |-0--0--0-0-0-0-(0)-0-0-0-|-5----||
 |-4--4--4-4-7-7-(7)-7-6-6-|-6----||
 |-5--5--5-5-7-7-(7)-7-7-7-|-7----||
 |-5--5--5-5-5-5-(5)-5-0-0-|-0----||
 |-3--3--3-3---------------|------||

Bridge
[Fmaj7+11]Gtr III[G6]
H. +E S S +H. +E S S
 
 |-!0----------------(0)-0---|--------------------0---|
 |-!0----------------(0)---0-|-(0)------------(0)-----|
 |-!2----------------(2)-----|------------------------|
 |-!3----------------(3)-----|------------------------|
 |-!3----------------(3)-----|----------------------0-|
 |-!1----------------(1)-----|------------------------|

|
| Gtr I
| Q. S S +S S Q S S Q. S S +Q. S S
 
 |-!0------0-(0)---------0---|---------0-(0)------0---|
 |-!0------------0-----------|--------------------0---|
 |-!2--------------2-------0-|--------------------4s6-|
 |-!3------------------------|------------------------|
 |-!3------------------------|--5---------------------|
 |-!1----1-------------------|--3----3----------------|

[A]Gtr III[Asus4] [A]
+W +Q H.
 
 |---------------------------------|------------------------------------|
 |---------------------------------|------------------------------------|
 |---------------------------------|------------------------------------|
 |---------------------------------|------------------------------------|
 |-(0)-----------------------------|-(0)---([0])------------------------|
 |---------------------------------|------------------------------------|

|
| Gtr I
| E. S S S S S +S S S S S S S S E. S E E a E S S S S S S
 
 |-------------------------------0-|--5---------------------------------|
 |--5--5-5-5-5-------5-5-5-5-5-5-5-|--5---------------------------------|
 |--6--6-6-6-6h7-(7)-7-7-7-7-6-6-6-|--6--6---6-----9s7-5---5-7b9r(7)-5--|
 |--7--7-7-7-7-------7-7-7-7-7-7---|--7--7---7-----------7--------------|
 |--0--0-0-0-----------------------|--0--0---0--------------------------|
 |---------------------------------|------------------------------------|

[Fmaj7+11]+W [G6]+W
 
 |------------------------|---------------------|
 |------------------------|---------------------|
 |------------------------|---------------------|
 |------------------------|---------------------|
 |-(0)--------------------|-(0)-----------------|
 |------------------------|---------------------|

|
| Q. S S +S S Q S S Q. S S +Q. a E
 
 |-^0------0-(0)----------|---------0-(0)-------|
 |-^0------------0--------|---------------------|
 |-^2--------------2--2-2-|--4--------------4s6-|
 |-^3-----------------3-3-|--5--------------5s7-|
 |-^3-----------------3-3-|--5----5-------------|
 |-^1----1------------1-1-|--3----3-------------|

[A]Gtrs I, I[Asus4]II[A] [Asus4] [A]
Q S S S S +S S S S S S S S E S S S S S S +S S S S S S S S
 
 |------------------------------|-------------------------------0-|
 |-5--5-5-5-5-(5)-5-5-5-5-5-5-5-|-5-5-5-5-5-5-5-(5)-5-5-5-5-5-5-0-|
 |-6--6-6-6-7-(7)-7-7-7-7-6-6-6-|-6-6-6-6-6-6-7-(7)-7-7-7-7-6-6-0-|
 |-7--7-7-7-7-(7)-7-7-7-7-7-7-7-|-7-7-7-7-7-7-7-(7)-7-7-7-7-7-7-0-|
 |-0--0-0-0-------0-0-0-0-0-0-0-|-0-0-0-0-0-0-0-(0)-0-0-0-0-0-0---|
 |------------------------------|---------------------------------|

[Fmaj7+11]Q E S S +S S [Csus2/G]E +S S S S [G6]Q E. S S S [D5/A]E S S E
 
 |-0--0-0-0-(0)-0-3-(3)-3-3---|-0--0--0-----------0-|
 |-0--0-0-0-(0)-0-3-(3)-3-3-0-|-0--0--0-----------0-|
 |-2--2-2-2-(2)-2-5-(5)-5-5-0-|-4--4--4-----7-7-7-0-|
 |-3--3-3-3-(3)-3-5-(5)-5-5-0-|-5--5--5-----7-7-7-0-|
 |-3--3-3-3-(3)-3-3-(3)-3-3---|-5--5--5-0-0-5-5-5-0-|
 |-1--1-1-1-(1)-1-3-(3)-3-3---|-3--3--3-0-0-5-5-5---|

[Fmaj7+11]Q E. S S [Csus2/G]S E +S S S S [G6]Q E. S S S [D5/AC#C5/G]E S E S
 
 |-0--0--0---3-3-(3)-3-3---|-0--0--0-------------|
 |-0--0--0---3-3-(3)-3-3-0-|-0--0--0-------------|
 |-2--2--2---5-5-(5)-5-5-0-|-4--4--4-------------|
 |-3--3--3---5-5-(5)-5-5-0-|-5--5--5-0-0-7-7-6-5-|
 |-3--3--3---3-3-(3)-3-3---|-5--5--5-0-0-5-5-4-3-|
 |-1--1--1-0-3-3-(3)-3-3---|-3--3--3-0-0-5-5-4-3-|

[Fmaj7+11]Q E. S S [Csus2/G]S E S S S S [G6]Q Q S S E S S S S
 
 |----0--0-------------0-|-0--0--0-0-0-0-0-0---|
 |----0--0-----------0-0-|-0--0--0-0-0-0-0-0---|
 |----2--2---5-5-5-5-0-0-|-4--4--4-4-4-4-4-4-6-|
 |----3--3-0-5-5-5-5---0-|-5--5--5-5-5-5-5-5-7-|
 |-3--3--3-0-3-3-3-3---0-|-5--5--5-5-5-5-5-5-0-|
 |-1--1--1---3-3-3-3-----|-3--3--3-3-3-3-3-3-0-|

[A]S S S S S S S [Asus4]S +S S S S [A]S S S S [G6]E S S S S S S +S S S S S S S S
 
 |-----------------------------------|-0-0-0-0-0-0-0-(0)-0-0-0-0-0-----|
 |-5-5-5-5-5-5-5-5-(5)-5-5-5-5-5-0-0-|-0-0-0-0-0-0-3-(3)-3-3-3-3-3-0-0-|
 |-6-6-6-6-6-6-7-7-(7)-7-7-7-6-6-0-0-|-4-4-4-4-4-4-4-(4)-4-4-4-4-4-0-0-|
 |-7-7-7-7-7-7-7-7-(7)-7-7-7-7-7-0-0-|-5-5-5-5-5-5-5-(5)-5-5-5-5-5-0-0-|
 |-0-0-0-0-0-0-0-0-(0)-0-0-0-0-0-0-0-|-5-5-5-5-5-5-5-(5)-5-5-5-5-5-0-0-|
 |-------------------------------0-0-|-3-3-3-3-3-3-----------------0-0-|

[Fmaj7+11]E S S S S S S +S S S S S S S S [G6]S S S S S S S S +S S S S S S S S
 
 |-0-0-0-0-0-0-0-(0)-0-0-0-0-0-0-0-|-0-0-0-0-0-0-0-0-(0)-0-0-0-0-0-----||
 |-0-0-0-0-0-0-0-(0)-0-0-0-0-0-0-0-|-0-0-0-0-0-0-0-3-(3)-3-3-3-3-3-----||
 |-2-2-2-2-2-2-2-(2)-2-2-2-2-2-2-4-|-4-4-4-4-4-4-4-4-(4)-4-4-4-4-4-----||
 |-3-3-3-3-3-3-3-(3)-3-3-3-3-3-3-5-|-5-5-5-5-5-5-5-5-(5)-5-5-5-5-5-----||
 |-3-3-3-3-3-3-3-(3)-3-3-3-3-3-3-5-|-5-5-5-5-5-5-5-5-(5)-5-5-5-5-5-----||
 |-1-1-1-1-1-1-1-(1)-1-1-1-1-1-1---|-3-3-3-3-3-3-3-----------------0-0-||

Chorus
[Aadd9]Q E. S S S E S S S S [Fmaj7+11]Q E. S S S [Csus2/G]S S S S S S
 
 ||--0--0--0-0-0-0-0-0-----|-0--0--0-----3-3-3-3-3---|
 ||o-0--0--0-0-0-0-0-0-----|-0--0--0-0-0-3-3-3-3-3---|
 ||--6--6--6-6-6-6-6-6-----|-2--2--0-0-0-5-5-5-5-5-4-|
 ||--7--7--7-7-7-7-7-7-----|-3--3--0-0-0-5-5-5-5-5-5-|
 ||o-7--7--7-7-7-7-7-7-----|-3--3----0-0-3-3-3-3-3-5-|
 ||--5--5--5-5-5-5-5-5-0-0-|-1--1--------3-3-3-3-3-3-|

[G]Q E. S S S E S S S S 3x [Aadd9]Q E. S S S E S S S S
 
 |-3--3--3-3-3-3-3-3------||-0--0--0-0-0-0-0-0-----|
 |-3--3--3-3-3-3-3-3-----o||-0--0--0-0-0-0-0-0-----|
 |-4--4--4-4-4-4-4-4------||-6--6--6-6-6-6-6-6-----|
 |-5--5--5-5-5-5-5-5------||-7--7--7-7-7-7-7-7-----|
 |-5--5--5-5-5-5-5-5-----o||-7--7--7-7-7-7-7-7-----|
 |-3--3--3-3-3-3-3-3-0-0--||-5--5--5-5-5-5-5-5-0-0-|

[Fmaj7+11]Q E. S S S [Csus2/G]S S S S S S [G6]E S S E S S S S E S S S S
 
 |-0--0--0-----3-3-3-3-3---|-0-0-0-0-0-0-0-0-0-0-0-0-0-||
 |-0--0--0-0-0-3-3-3-3-3---|-0-0-0-0-0-0-0-0-0-0-0-0-0-||
 |-2--2--0-0-0-5-5-5-5-5-4-|-4-4-4-4-4-4-4-4-4-4-4-4-6-||
 |-3--3--0-0-0-5-5-5-5-5-5-|-5-5-5-5-5-5-5-5-5-5-5-5---||
 |-3--3----0-0-3-3-3-3-3-5-|-5-5-5-5-5-5-5-5-5-5-5-5---||
 |-1--1--------3-3-3-3-3-3-|-3-3-3-3-3-3-3-3-3-3-3-3---||

Guitar Solo
[A]Gtr III[A] [Asus4]
 
 |----3-----| |----3-----|

Q S +S +S +E S +S +S S S S +S +S S
 
 |----------------------------------------------------------------------------------------------|
 |-12----------12--------------------------------12--------------------13-----------------------|
 |-14b16-------14b16r(14)b16r(14)b16r(14)b16-----14b16==(14)r(14)p==12----14b16==(14)r(14)p==12-|
 |----------------------------------------------------------------------------------------------|
 |----------------------------------------------------------------------------------------------|
 |----------------------------------------------------------------------------------------------|

|
| Gtr I
| S S S S S S S S +S S S S S S S S
 
 |----------------------------------------------------------------------------------------------|
 |--5----5-5-5--5------5-------5-------5-----(5)--5-------5-------5-----5--5-------0-------0----|
 |--6----6-6-6--6------6-------7-------7-----(7)--7-------7-------7-----6--6-------0-------0----|
 |--7----7-7-7--7------7-------7-------7-----(7)--7-------7-------7-----7--7-------0-------0----|
 |--0----0-0-0--0------0-------0-------0-----(0)--0-------0-------0-----0--0-------0-------0----|
 |---------------------------------------------------------------------------------0-------0----|

[G6] ~~~~~ ~~~~~~~
Q E +S S T T T T +S S E E
 
 |------------------------------------------------17\----------|
 |-12-------------------------------13------------17\----------|
 |-14b16-----14b16r==(14)-14-12h=14----14-(14)-14-------x/-----|
 |------------------------------------------------------x/-----|
 |-------------------------------------------------------------|
 |-------------------------------------------------------------|

|
| E S S S S S S +S S S S S S S S
 
 |--0----0-0--0----0---0---0-(0)-----0------0---0--0--0--------|
 |--0----0-0--0----0---0---3-(3)-----3------3---3--3--3-0--0---|
 |--4----4-4--4----4---4---4-(4)-----4------4---4--4--4-0--0---|
 |--5----5-5--5----5---5---5-(5)-----5------5---5--5--5-0--0---|
 |--5----5-5--5----5---5---5-(5)-----5------5---5--5--5-0--0---|
 |--3----3-3--3----3---3--------------------------------0--0---|

[Fmaj7+11] |-3-|
T T T T T T T T E T T T T T T T T E E S E
 
 |-17-------------------------------------------------------|
 |----20-17-------------------------------------------------|
 |----------19s7p5-------------------------------------12---|
 |-----------------7-5-7---5--------------------------------|
 |---------------------------7s5-7s=5--3---------3----------|
 |---------------------------------------5p3h5-------5------|

|
| E S S S S S S +S S S S S S S S
 
 |--0----------0---0---0-0-0---0---(0)---0---0-0-0-0----0-0-|
 |--0----------0---0---0-0-0---0---(0)---0---0-0-0-0----0-0-|
 |--2----------2---2---2-2-2---2---(2)---2---2-2-2-2----2-4-|
 |--3----------3---3---3-3-3---3---(3)---3---3-3-3-3----3-5-|
 |--3----------3---3---3-3-3---3---(3)---3---3-3-3-3----3-5-|
 |--1----------1---1---1-1-1---1---(1)---1---1-1-1-1----1---|

[G6] ~~~ ~~~ ~~~ ~~~ ~~~ ~~~~~~~~ ~~~ ~~~
S T S T S T S T S T T +T T S T S T E. S
 
 |--------------------------------------------------------------------------|
 |--------------------------------------------------------------------------|
 |-14p12-16p==12-14p12-16p==12-14p12-16-(16)p12-14p12-16p==12-17------17\---|
 |--------------------------------------------------------------------------|
 |--------------------------------------------------------------------------|
 |--------------------------------------------------------------------------|

|
| S S S S S S S S +S S S S S S S S
 
 |--0--0----0-----0--0----0-----0--0-----(0)-----0--0----0-----0--0---------|
 |--0--0----0-----0--0----0-----0--3-----(3)-----3--3----3-----3--3---------|
 |--4--4----4-----4--4----4-----4--4-----(4)-----4--4----4-----4--4---------|
 |--5--5----5-----5--5----5-----5--5-----(5)-----5--5----5-----5--5---------|
 |--5--5----5-----5--5----5-----5--5-----(5)-----5--5----5-----5--5---------|
 |--3--3----3-----3--3----3-----3-----------------------------------0--0----|

[A] [Asus4] [A] ~~~
T T T T T T T T T T T T T T T T T T T T T T T T E S S
 
 |--------------------------------------------------------------|
 |--------------------------------------------------------------|
 |-5-0-2-5-2-0-5-0-2-5-2-0-5-0-2-5--2--0-5-0-2-5-2-0-[2]------5-|
 |--------------------------------------------------------------|
 |--------------------------------------------------------------|
 |---------------------------------------------------------x\---|

|
| S S S S S S S S +S S S S S S S S
 
 |--------------------------------------------------------------|
 |-5---5---5---5---5---5---5---5---(5)---5---5---5----5--5-0--0-|
 |-6---6---6---6---6---6---7---7---(7)---7---7---7----6--6-0--0-|
 |-7---7---7---7---7---7---7---7---(7)---7---7---7----7--7-0--0-|
 |-0---0---0---0---0---0---0---0---(0)---0---0---0----0--0-0--0-|
 |---------------------------------------------------------0--0-|

[G6]T T T T T T T T T T T T T T T T T T T T T T T T E +S S
 
 |-----------------------------------------------------------------|
 |--------------------------------------------------------------12-|
 |-7-5---5-9-5-9-5---5-7-5-7-5---5--9--5---5-7-5---5-[7]---(7)\----|
 |-----7-----------7-----------7---------7-------7-----------------|
 |-----------------------------------------------------------------|
 |-----------------------------------------------------------------|

|
| E S S S S S S +S S S S S S S S
 
 |-0-------0---0---0---0---0---0---(0)---0---0---0----0--0---------|
 |-0-------0---0---0---0---0---3---(3)---3---3---3----3--3--0----0-|
 |-4-------4---4---4---4---4---4---(4)---4---4---4----4--4--0----0-|
 |-5-------5---5---5---5---5---5---(5)---5---5---5----5--5--0----0-|
 |-5-------5---5---5---5---5---5---(5)---5---5---5----5--5--0----0-|
 |-3-------3---3---3---3---3--------------------------------0----0-|

[Fmaj7+11] ~~
T T T T T T T T T T T T T T T T T T T T T T T T E +S S
 
 |-------------------------------------------------------------------------------------/5-|
 |-17p12h13h17p13p12----12h13h17p13p12-17p12h13h17p13p=12----12h13h17p13p12-13---(13)\-/5-|
 |-------------------17-----------------------------------17------------------------------|
 |----------------------------------------------------------------------------------------|
 |----------------------------------------------------------------------------------------|
 |----------------------------------------------------------------------------------------|

|
| E S S S S S S +S S S S S S S S
 
 |--0-----------0-----0-----0-----0-----0-----0----(0)-----0-----0-----0-----0-0---0----0-|
 |--0-----------0-----0-----0-----0-----0-----0----(0)-----0-----0-----0-----0-0---0----0-|
 |--2-----------2-----2-----2-----2-----2-----2----(2)-----2-----2-----2-----2-2---2----4-|
 |--3-----------3-----3-----3-----3-----3-----3----(3)-----3-----3-----3-----3-3---3----5-|
 |--3-----------3-----3-----3-----3-----3-----3----(3)-----3-----3-----3-----3-3---3----5-|
 |--1-----------1-----1-----1-----1-----1-----1----(1)-----1-----1-----1-----1-1---1------|

H.=H
[G6]S S T +T T T S T +S T S S S a S S S S S S
 
 |-5----------------------------------------------------------|
 |-5-8--------------8----------------7--5-----------5b5.5-----|
 |-----7pb9r(7)-5-----7b8r(7)p==5----7--5-----------5b5.5-----|
 |----------------7---------------7-------7p5---5-7-------7---|
 |--------------------------------0-----------7---------------|
 |------------------------------------------------------------|

|
| Q S S S S +S S S S S S S S
 
 |-0----------------0-0-------0---0-(0)-0---0-0-0-0-0---------|
 |-0----------------0-0-------0---0-(0)-3---3-3-3-3-3---------|
 |-4----------------4-4-------4---4-(4)-4---4-4-4-4-4---------|
 |-5----------------5-5-------5---5-(5)-5---5-5-5-5-5---------|
 |-5----------------5-5-------5---5-(5)-5---5-5-5-5-5---------|
 |-3----------------3-3-------3---3-(3)-------------------0---|

[A] >
~~~~~~~~~~~~~~
E E H. +W
 
 |--------------|--------*|
 |--------------|--------*|
 |-----[9]------|-(9)----*|
 |---x----------|--------*|
 |-x------------|--------*|
 |--------------|--------*|

|
| >
| W +W
 
 |--------------|--------*|
 |-5------------|-(5)----*|
 |-6------------|-(6)----*|
 |-7------------|-(7)----*|
 |-0------------|-(0)----*|
 |--------------|--------*|
 --------------------------------------------------------------------------------

Duration Legend
 
 ---------------
 W - whole; H - half; Q - quarter; E - 8th; S - 16th; T - 32nd; X - 64th; a - acciaccatura

+ - note tied to previous; . - note dotted; .. - note double dotted
Uncapitalized letters represent notes that are staccato (1/2 duration)
Irregular groupings are notated above the duration line
Duration letters will always appear directly above the note/fret number it represents the
duration for. Duration letters with no fret number below them represent rests. Multi-
bar rests are notated in the form Wxn, where n is the number of bars to rest for. Low
melody durations appear below the staff
Tablature Legend
 
 ----------------

h - hammer-on
p - pull-off
b - bend
pb - pre-bend
r - bend release (if no number after the r, then release immediately)
/\ - slide into or out of (from/to "nowhere")
s - legato slide
S - shift slide
- natural harmonic
(n) - artificial harmonic
n(n) - tapped harmonic
~ - vibrato
tr - trill
T - tap
TP - trem. picking
PM - palm muting
\n/ - tremolo bar dip; n = amount to dip
\n - tremolo bar down
n/ - tremolo bar up
/n\ - tremolo bar inverted dip
= - hold bend; also acts as connecting device for hammers/pulls
- volume swell (louder/softer)
x - on rhythm slash represents muted slash
o - on rhythm slash represents single note slash
Misc Legend
 
 -----------

| - bar
|| - double bar
||o - repeat start
o|| - repeat end
*| - double bar (ending)
: - bar (freetime)
$ - Segno
& - Coda
Tempo markers - = BPM(8/16=s8/s16), where s8 = swing 8ths, s16 = swing 16ths

Important: The song above is NOT stored on the Chordie server. The original song is hosted at www.guitartabs.cc. Chordie works as a search engine and provides on-the-fly formatting. Chordie does not index songs against artists'/composers' will. To remove this song please click here.

Text color:
Chord color:
Chord grids: 
Font size:    
Page size: 

A Aadd9 Asus4 Badd11 Cmaj7 Csus2/G D5/A D6add9 D6sus4 F# F#add11 G G6
Rate #1 of 6 versions

Jango Player

Login - add to songbook

SHARE PAGE  



You need to log in to post comments