Guitar Tabs, Chords and Lyrics
Update 25:10. 13:00. Site is back up running again. Songbooks are recovered. Woring on getting search back up..


To the Stage   Asking Alexandria

 
 F|------------------------------------------------------------------|
 C|o-----------------------------------------------------------------|
 G|o-------------------------------------------------1-1-1-1-0-0-0-0-|
 C|--0-0-0-0-0-0-0-0-0-0-0-0-0-0-0-0-0-0-0-0-0-0-0-0-----------------|

 


 [1] [+] [2] [+] [3] [+] [4] [+] [1] [+] [2] [+] [3] [+] [4] [+] [1] [+] [2] [+] [3] [+] [4] [+] [1] [+] [2] [+] [3] [+] [4] [+] 


 

 
 F|------------------------------------------------------------------|
 C|-----------------------------------------------------------------o|
 G|-------------------------------------------------1-1-1-1---------o|
 C|-0-0-0-0-0-0-0-0-0-0-0-0-0-0-0-0-0-0-0-0-0-0-0-0---------3-3-3-3--|

 


 [1] [+] [2] [+] [3] [+] [4] [+] [1] [+] [2] [+] [3] [+] [4] [+] [1] [+] [2] [+] [3] [+] [4] [+] [1] [+] [2] [+] [3] [+] [4] [+] 


 Verse x2


 

 
 F|------------------------------------------------------------------|
 C|o-----------------------------------------------------------------|
 G|o---------------------------------0-0-0-0-0-0-0-0-0-0-0-0-0-0-0-0-|
 C|--0-0-0-0-0-0-0-0-0-0-0-0-0-0-0-0---------------------------------|

 


 [1] [+] [2] [+] [3] [+] [4] [+] [1] [+] [2] [+] [3] [+] [4] [+] [1] [+] [2] [+] [3] [+] [4] [+] [1] [+] [2] [+] [3] [+] [4] [+] 


 

 
 F|------------------------------------------------------------------|
 C|-----------------------------------------------------------------o|
 G|---------------------------------0-0-0-0-0-0-0---1-1-1-1-3-3-3-3-o|
 C|-5-5-5-5-5-5-5-5-5-5-5-5-5-5-5-5---------------5------------------|

 


 [1] [+] [2] [+] [3] [+] [4] [+] [1] [+] [2] [+] [3] [+] [4] [+] [1] [+] [2] [+] [3] [+] [4] [+] [1] [+] [2] [+] [3] [+] [4] [+] 


 

 
 F|-----------------------------------------------------------------|
 C|-----------------------------------------------------------------|
 G|-----------------------------------------------------------------|
 C|-0---------------------------------------------------------------|

 


 [1] [2] [3] [4] [1] [2] [3] [4] [1] [2] [3] [4] [1] [2] [3] [4] [1] [2] [3] [4] [1] [2] [3] [4] [1] [2] [3] [4] [1] [2] [3] [4] 


 

 
 F|-----------------------------------------------------------------|
 C|-----------------------------------------------------------------|
 G|-----------------------------------------------------------------|
 C|-0---------------0-------00000-----------00000-000-------00000---|

 


 [1] [+] [2] [+] [3] [+] [4] [+] [1] [+] [2] [+] [3] [+] [4] [+] [1] [+] [2] [+] [3] [+] [4] [+] [1] [+] [2] [+] [3] [+] [4] [+] 


 

 
 F|-----------------------------------------------------------------|
 C|-----------------------------------------------------------------|
 G|-----------------------------------------------------------------|
 C|---------00000-000-------00000-----------00000-000-------00000---|

 


 [1] [+] [2] [+] [3] [+] [4] [+] [1] [+] [2] [+] [3] [+] [4] [+] [1] [+] [2] [+] [3] [+] [4] [+] [1] [+] [2] [+] [3] [+] [4] [+] 


 

 
 F|-----------------------------------------------------------------|
 C|-----------------------------------------------------------------|
 G|-----------------------------------------------------------------|
 C|---------00000-001---------------0-------00000-----------00000-00|

 


 [1] [+] [2] [+] [3] [+] [4] [+] [1] [+] [2] [+] [3] [+] [4] [+] [1] [+] [2] [+] [3] [+] [4] [+] [1] [+] [2] [+] [3] [+] [4] [+] 


 

 
 F|-------------------------------------------------|
 C|-------------------------------------------------|
 G|-------------------------------------------------|
 C|-0-------00000-----------00000-000---------------|

 


 [1] [+] [2] [+] [3] [+] [4] [+] [1] [+] [2] [+] [3] [+] [4] [+] [1] [+] [2] [+] [3] [+] [4] [+] 


 Chorus x2


 

 
 F|------------------------------------------------------------------|
 C|o-----------------------------------------------------------------|
 G|o---------------------------------3-3-3-3-3-3-3-3-3-3-3-3-3-3-3-3-|
 C|--0-0-0-0-0-0-0-0-0-0-0-0-0-0-0-0---------------------------------|

 


 [1] [+] [2] [+] [3] [+] [4] [+] [1] [+] [2] [+] [3] [+] [4] [+] [1] [+] [2] [+] [3] [+] [4] [+] [1] [+] [2] [+] [3] [+] [4] [+] 


 

 
 F|------------------------------------------------------------------|
 C|-----------------------------------------------------------------o|
 G|-1-1-1-1-1-1-1-1-1-1-1-1-1-1-1-1-1-1-1-1-1-1-1-1-1-1-1-1-3-3-3-3-o|
 C|------------------------------------------------------------------|

 


 [1] [+] [2] [+] [3] [+] [4] [+] [1] [+] [2] [+] [3] [+] [4] [+] [1] [+] [2] [+] [3] [+] [4] [+] [1] [+] [2] [+] [3] [+] [4] [+] 


 

 
 F|---------------------------------|
 C|---------------------------------|
 G|---------------------------------|
 C|-0-------------------------------|

 


 [1] [2] [3] [4] [1] [2] [3] [4] [1] [2] [3] [4] [1] [2] [3] [4]  


 

 
 F|-----------------------------------------------------------------|
 C|-----------------------------------------------------------------|
 G|-1-1-1---1-1-1---1-1-1---1-1-1---3-3-3---3-3-3-5-----------------|
 C|-----------------------------------------------------------------|

 


 [1] [+] [2] [+] [3] [+] [4] [+] [1] [+] [2] [+] [3] [+] [4] [+] [1] [+] [2] [+] [3] [+] [4] [+] [1] [+] [2] [+] [3] [+] [4] [+] 


 Intro x1


 

 
 F|-----------------------------------------------------------------|
 C|-----------------------------------------------------------------|
 G|-------------------------------------------------1-1-1-1-0-0-0-0-|
 C|-0-0-0-0-0-0-0-0-0-0-0-0-0-0-0-0-0-0-0-0-0-0-0-0-----------------|

 


 [1] [+] [2] [+] [3] [+] [4] [+] [1] [+] [2] [+] [3] [+] [4] [+] [1] [+] [2] [+] [3] [+] [4] [+] [1] [+] [2] [+] [3] [+] [4] [+] 


 

 
 F|-----------------------------------------------------------------|
 C|-----------------------------------------------------------------|
 G|-------------------------------------------------1-1-1-1-3-3-3-3-|
 C|-0-0-0-0-0-0-0-0-0-0-0-0-0-0-0-0-0-0-0-0-0-0-0-0-----------------|

 


 [1] [+] [2] [+] [3] [+] [4] [+] [1] [+] [2] [+] [3] [+] [4] [+] [1] [+] [2] [+] [3] [+] [4] [+] [1] [+] [2] [+] [3] [+] [4] [+] 


 Breakdown


 

 
 F|-----------------------------------------------------------------|
 C|-----------------------------------------------------------------|
 G|-----------------------------------------------------------------|
 C|-0-0-------------0-0-----0-0-----0-0-------------0-0-----0-0-----|

 


 [1] [+] [2] [+] [3] [+] [4] [+] [1] [+] [2] [+] [3] [+] [4] [+] [1] [+] [2] [+] [3] [+] [4] [+] [1] [+] [2] [+] [3] [+] [4] [+] 


 

 
 F|---------------------------------------------------------------------------------|
 C|---------------------------------------------------------------------------------|
 G|---------------------------------------------------------------------------------|
 C|-0-0---------0---0-0-----0-0-----0-0---------0---7---6---5---4---3---2---1-----0-|

 


 [1] [+] [2] [+] [3] [+] [4] [+] [1] [+] [2] [+] [3] [+] [4] [+] [1] [+] [2] [+] [3] [+] [4] [+] [1] [+] [2] [+] [3] [+] [4] [+] [1] [+] [2] [+] [3] [+] [4] [+] 


 Outro


 

 
 F|-----------------------------------------------------------------|
 C|-----------------------------------------------------------------|
 G|-4-4-4-4-4-4-4-4-6-6-6-6-6-6-6-6-7-7-7-7-7-7-7-7-9-9-9-9-9-9-9-9-|
 C|-----------------------------------------------------------------|

 


 [1] [+] [2] [+] [3] [+] [4] [+] [1] [+] [2] [+] [3] [+] [4] [+] [1] [+] [2] [+] [3] [+] [4] [+] [1] [+] [2] [+] [3] [+] [4] [+] 


 

 
 F|-----------------------------------------------------------------|
 C|-----------------------------------------------------------------|
 G|-7-7-7-7-7-7-7-7-7-7-7-7-7-7-7-7-6-6-6-6-6-6-6-6-6-6-6-6-2-2-2-2-|
 C|-----------------------------------------------------------------|

 


 [1] [+] [2] [+] [3] [+] [4] [+] [1] [+] [2] [+] [3] [+] [4] [+] [1] [+] [2] [+] [3] [+] [4] [+] [1] [+] [2] [+] [3] [+] [4] [+] 


 

 
 F|-----------------------------------------------------------------|
 C|-----------------------------------------------------------------|
 G|-4-4-4-4-4-4-4-4-6-6-6-6-6-6-6-6-7-7-7-7-7-7-7-7-9-9-9-9-9-9-9-9-|
 C|-----------------------------------------------------------------|

 


 [1] [+] [2] [+] [3] [+] [4] [+] [1] [+] [2] [+] [3] [+] [4] [+] [1] [+] [2] [+] [3] [+] [4] [+] [1] [+] [2] [+] [3] [+] [4] [+] 


 

 
 F|-----------------------------------------------------------------|
 C|-----------------------------------------------------------------|
 G|-0-0-0-0-0-0-0-0-0-0-0-0-0-0-0-0-7-7-7-7-7-7-7-7-2-2-2-2-2-2-2-2-|
 C|-----------------------------------------------------------------|

 


 [1] [+] [2] [+] [3] [+] [4] [+] [1] [+] [2] [+] [3] [+] [4] [+] [1] [+] [2] [+] [3] [+] [4] [+] [1] [+] [2] [+] [3] [+] [4] [+] 


 

 
 F|-----------------------------------------------------------------|
 C|-----------------------------------------------------------------|
 G|-4-4-4-4-4-4-4-4-6-6-6-6-6-6-6-6-7-7-7-7-7-7-7-7-9-9-9-9-9-9-9-9-|
 C|-----------------------------------------------------------------|

 


 [1] [+] [2] [+] [3] [+] [4] [+] [1] [+] [2] [+] [3] [+] [4] [+] [1] [+] [2] [+] [3] [+] [4] [+] [1] [+] [2] [+] [3] [+] [4] [+] 


 

 
 F|-------------------------------------------------------------------|
 C|-------------------------------------------------------------------|
 G|-7-7-7-7-7-7-7-7-7-7-7-7-7-7-7-7-6-6-6-6-6-6-6-6-6-6-6-6-2-2-2-2-4-|
 C|-------------------------------------------------------------------|


Important: The song above is NOT stored on the Chordie server. The original song is hosted at www.guitartabs.cc. Chordie works as a search engine and provides on-the-fly formatting. Chordie does not index songs against artists'/composers' will. To remove this song please click here.

This song is displayed as text-only. Transposing and tuning is only available for chordpro-songs.
Rate #1 of 1 versions

Jango Player

Login - add to songbook

SHARE PAGE  



You need to log in to post comments