Guitar Tabs, Chords and Lyrics
Server problems seems to be fixed. Chordie has been experiencing problems with songs disappearing. These issues now seems to be fixed, but still verifying the fix. If you find anything strange, please email admin@chordie.com.


Coming Home   Avenged Sevenfold

 
 G|---------------------------------|
 D|---------------------------------|
 A|---------------------------------|
 D|---------------------------------|
 B|-0-------------------------------|

 


 [1] [+] [2] [+] [3] [+] [4] [+] [1] [+] [2] [+] [3] [+] [4] [+]  


 Verse


 

 
 G|------------------------------------------------------------------|
 D|o---------------6-------------------------------6-------------1---|
 A|--2h4-4-4-4-4-4---4-4-4-4-4-4-4-4-2h4-4-4-4-4-4---4-4-4-4-2-4---2-|
 D|o-----------------------------------------------------------------|
 B|------------------------------------------------------------------|

 


 [1] [+] [2] [+] [3] [+] [4] [+] [1] [+] [2] [+] [3] [+] [4] [+] [1] [+] [2] [+] [3] [+] [4] [+] [1] [+] [2] [+] [3] [+] [4] [+] 


 

 
 G|------------------------------------------------------------------|
 D|---------------6-----------------4-----2-----1-----------1---2---o|
 A|-2h4-4-4-4-4-4---4-4-4-4-4-4-4-4-------------------4--------------|x3
 D|-----------------------------------------------------------------o|
 B|------------------------------------------------------------------|

 


 [1] [+] [2] [+] [3] [+] [4] [+] [1] [+] [2] [+] [3] [+] [4] [+] [1] [+] [2] [+] [3] [+] [4] [+] [1] [+] [2] [+] [3] [+] [4] [+] 


 Pre Chorus 1:26


 

 
 G|-----------------------------------------------------------------|
 D|-----------------------------------------------------------------|
 A|---------------------------------4-5---3-4---2-3---1-2---0-1-0---|
 D|-0-----0-----0-----0-0---0---0---------------------------------2-|
 B|-----------------------------------------------------------------|

 


 [1] [+] [2] [+] [3] [+] [4] [+] [1] [+] [2] [+] [3] [+] [4] [+] [1] [+] [2] [+] [3] [+] [4] [+] [1] [+] [2] [+] [3] [+] [4] [+] 


 Chorus 1:32


 

 
 G|-----------------------------------------------------------------|
 D|---------------------------------------------------------7-6-----|
 A|-----------------------------------------------------5-7-----7-5-|
 D|-4---4-4---4-4-----4-4---4-6-7-6-2---2-2---2-2-----2-------------|
 B|-----------------------------------------------------------------|

 


 [1] [+] [2] [+] [3] [+] [4] [+] [1] [+] [2] [+] [3] [+] [4] [+] [1] [+] [2] [+] [3] [+] [4] [+] [1] [+] [2] [+] [3] [+] [4] [+] 


 

 
 G|-----------------------------------------------------------------|
 D|-----------------------------------------------------------------|
 A|---------------------5---5-0-5-7---------------------------------|
 D|-0---0-0---0-0-----0-------------2-2-2-2-----2-2-2-2-----2-2-2-2-|
 B|-----------------------------------------------------------------|

 


 [1] [+] [2] [+] [3] [+] [4] [+] [1] [+] [2] [+] [3] [+] [4] [+] [1] [+] [2] [+] [3] [+] [4] [+] [1] [+] [2] [+] [3] [+] [4] [+] 


 

 
 G|-----------------------------------------------------------------|
 D|---------------------------------------------------------7-6-----|
 A|-----------------------------------------------------5-7-----7-5-|
 D|-4---4-4---4-4-----4-4---4-6-7-6-2---2-2---2-2-----2-------------|
 B|-----------------------------------------------------------------|

 


 [1] [+] [2] [+] [3] [+] [4] [+] [1] [+] [2] [+] [3] [+] [4] [+] [1] [+] [2] [+] [3] [+] [4] [+] [1] [+] [2] [+] [3] [+] [4] [+] 


 

 
 G|-----------------------------------------------------------------|
 D|-----------------------------------------------------------------|
 A|-------------------0-5-0-5-0-7-5---------------------------------|
 D|-0---0-0---0-0-------------------2-2-2-2-----2-2-2-2-----2-2-2-2-|
 B|-----------------------------------------------------------------|

 


 [1] [+] [2] [+] [3] [+] [4] [+] [1] [+] [2] [+] [3] [+] [4] [+] [1] [+] [2] [+] [3] [+] [4] [+] [1] [+] [2] [+] [3] [+] [4] [+] 


 Interlude 1:52


 

 
 G|-----------------------------------------------------------------|
 D|-----------------------------------------------------------------|
 A|-----------------------------------------------------------------|
 D|-4---------------------------------------------------------------|
 B|-----------------------------------------------------------------|

 


 [1] [+] [2] [+] [3] [+] [4] [+] [1] [+] [2] [+] [3] [+] [4] [+] [1] [+] [2] [+] [3] [+] [4] [+] [1] [+] [2] [+] [3] [+] [4] [+] 


 1:57 Verse


 

 
 G|-----------------------------------------------------------------|
 D|---------------6-------------------------------6-----6---6---6---|
 A|-2h4-4-4-4-4-4---4-4-4-4-4-4-4-4-2h4-4-4-4-4-4---4-4---4---4---4-|
 D|-----------------------------------------------------------------|
 B|-----------------------------------------------------------------|

 


 [1] [+] [2] [+] [3] [+] [4] [+] [1] [+] [2] [+] [3] [+] [4] [+] [1] [+] [2] [+] [3] [+] [4] [+] [1] [+] [2] [+] [3] [+] [4] [+] 


 

 
 G|-----------------------------------------------------------------|
 D|---------------6-----------------4-----2-----1-----------1---2---|
 A|-2h4-4-4-4-4-4---4-4-4-4-4-4-4-4-------------------4-------------|
 D|-----------------------------------------------------------------|
 B|-----------------------------------------------------------------|

 


 [1] [+] [2] [+] [3] [+] [4] [+] [1] [+] [2] [+] [3] [+] [4] [+] [1] [+] [2] [+] [3] [+] [4] [+] [1] [+] [2] [+] [3] [+] [4] [+] 


 

 
 G|-----------------------------------------------------------------|
 D|---------------6-------------------------------6-------------1---|
 A|-2h4-4-4-4-4-4---4-4-4-4-4-4-4-4-2h4-4-4-4-4-4---4-4-4-4-2-4---2-|
 D|-----------------------------------------------------------------|
 B|-----------------------------------------------------------------|

 


 [1] [+] [2] [+] [3] [+] [4] [+] [1] [+] [2] [+] [3] [+] [4] [+] [1] [+] [2] [+] [3] [+] [4] [+] [1] [+] [2] [+] [3] [+] [4] [+] 


 

 
 G|-----------------------------------------------------------------|
 D|---------------6-----------------4-----2-----1-----------1---2---|
 A|-2h4-4-4-4-4-4---4-4-4-4-4-4-4-4-------------------4-------------|
 D|-----------------------------------------------------------------|
 B|-----------------------------------------------------------------|

 


 [1] [+] [2] [+] [3] [+] [4] [+] [1] [+] [2] [+] [3] [+] [4] [+] [1] [+] [2] [+] [3] [+] [4] [+] [1] [+] [2] [+] [3] [+] [4] [+] 


 Pre Chorus 2:20


 

 
 G|-----------------------------------------------------------------|
 D|-----------------------------------------------------------------|
 A|---------------------------------4-5---3-4---2-3---1-2---0-1-0---|
 D|-0-----0-----0-----0-0---0---0---------------------------------2-|
 B|-----------------------------------------------------------------|

 


 [1] [+] [2] [+] [3] [+] [4] [+] [1] [+] [2] [+] [3] [+] [4] [+] [1] [+] [2] [+] [3] [+] [4] [+] [1] [+] [2] [+] [3] [+] [4] [+] 


 Chorus 2:25


 

 
 G|-----------------------------------------------------------------|
 D|---------------------------------------------------------7-6-----|
 A|-----------------------------------------------------7-------7-5-|
 D|-4---4-4---4-4-----4-4---4-6-7-6-2---2-2---2-2-----2-------------|
 B|-----------------------------------------------------------------|

 


 [1] [+] [2] [+] [3] [+] [4] [+] [1] [+] [2] [+] [3] [+] [4] [+] [1] [+] [2] [+] [3] [+] [4] [+] [1] [+] [2] [+] [3] [+] [4] [+] 


 

 
 G|-----------------------------------------------------------------|
 D|-----------------------------------------------------------------|
 A|---------------------5---5-0-5-7---------------------------------|
 D|-0---0-0---0-0-----0-------------2-2-2-2-----2-2-2-2-----2-2-2-2-|
 B|-----------------------------------------------------------------|

 


 [1] [+] [2] [+] [3] [+] [4] [+] [1] [+] [2] [+] [3] [+] [4] [+] [1] [+] [2] [+] [3] [+] [4] [+] [1] [+] [2] [+] [3] [+] [4] [+] 


 

 
 G|-----------------------------------------------------------------|
 D|-----------------------------------------------------9---7-6-----|
 A|-------------------------------------------------------------7-5-|
 D|-4---4-4---4-4-----4-4---4-6-7-6-2---2-2---2-2-----2-------------|
 B|-----------------------------------------------------------------|

 


 [1] [+] [2] [+] [3] [+] [4] [+] [1] [+] [2] [+] [3] [+] [4] [+] [1] [+] [2] [+] [3] [+] [4] [+] [1] [+] [2] [+] [3] [+] [4] [+] 


 

 
 G|-----------------------------------------------------------------|
 D|-----------------------------------------------------------------|
 A|-------------------0-5-0-5-0-7-5---------------------------------|
 D|-0---0-0---0-0-------------------2-2-2-2-----2-2-2-2-----2-2-2-2-|
 B|-----------------------------------------------------------------|

 


 [1] [+] [2] [+] [3] [+] [4] [+] [1] [+] [2] [+] [3] [+] [4] [+] [1] [+] [2] [+] [3] [+] [4] [+] [1] [+] [2] [+] [3] [+] [4] [+] 


 Solo 2:46


 

 
 G|-----------------------------------------------------------------|
 D|-----------------------------------------------------------------|
 A|-----------------------------------------------------------------|
 D|-4-4-4-4-4-4-4-------------------2-2-2-2-2-2-2-------------------|
 B|-----------------------------------------------------------------|

 


 [1] [+] [2] [+] [3] [+] [4] [+] [1] [+] [2] [+] [3] [+] [4] [+] [1] [+] [2] [+] [3] [+] [4] [+] [1] [+] [2] [+] [3] [+] [4] [+] 


 

 
 G|-----------------------------------------------------------------|
 D|-----------------------------------------------------------------|
 A|-----------------------------------------------------------------|
 D|-0-0-0-0-0-0-0-------------------2---2-2-2-2-2-2-2-2-2-2-2-2-2-2-|
 B|-----------------------------------------------------------------|

 


 [1] [+] [2] [+] [3] [+] [4] [+] [1] [+] [2] [+] [3] [+] [4] [+] [1] [+] [2] [+] [3] [+] [4] [+] [1] [+] [2] [+] [3] [+] [4] [+] 


 2:57


 

 
 G|------------------------------------------------------------------|
 D|o-6-----7-----4-----6-------------6-----7-----4-----6-------------|
 A|----4-4---4-4---4-4---4-4-----------4-4---4-4---4-4---4-4---------|
 D|o-----------------------------------------------------------------|
 B|--------------------------2-2-2-2-------------------------2-2-2-2-|

 


 [1] [+] [2] [+] [3] [+] [4] [+] [1] [+] [2] [+] [3] [+] [4] [+] [1] [+] [2] [+] [3] [+] [4] [+] [1] [+] [2] [+] [3] [+] [4] [+] 


 

 
 G|------------------------------------------------------------------|
 D|-6-----7-----4-----6-------------4-----2-----1-----2-----1-2-1-2-o|
 A|---4-4---4-4---4-4---4-4-----------2-2---2-2---2-2---2-2----------|
 D|-----------------------------------------------------------------o|
 B|-------------------------2-2-2-2----------------------------------|

 


 [1] [+] [2] [+] [3] [+] [4] [+] [1] [+] [2] [+] [3] [+] [4] [+] [1] [+] [2] [+] [3] [+] [4] [+] [1] [+] [2] [+] [3] [+] [4] [+] 


 3:19


 

 
 G|-----------------------------------------------------------------|
 D|-----------------------------------------------------------------|
 A|-0---0-0---0-0-----0-0---0-0---0-2---2-2---2-2-----2-2---2-2-2-2-|
 D|-----------------------------6-----------------------------------|
 B|-----------------------------------------------------------------|

 


 [1] [+] [2] [+] [3] [+] [4] [+] [1] [+] [2] [+] [3] [+] [4] [+] [1] [+] [2] [+] [3] [+] [4] [+] [1] [+] [2] [+] [3] [+] [4] [+] 


 

 
 G|-----------------------------------------------------------------|
 D|-----------------------------------------------------------------|
 A|-----------------------------------------------------------------|
 D|-------------------------2-4-2---------------------------2-4-2-6-|
 B|-2---2-2-2-2-2-2-2-2-2-2-------0-2---2-2-2-2-2-2-2-2-2-2---------|

 


 [1] [+] [2] [+] [3] [+] [4] [+] [1] [+] [2] [+] [3] [+] [4] [+] [1] [+] [2] [+] [3] [+] [4] [+] [1] [+] [2] [+] [3] [+] [4] [+] 


 

 
 G|-----------------------------------------------------------------|
 D|-----------------------------------------------------------------|
 A|-0---0-0---0-0-----0-0---0-0-0-0-2---2-2---2-2---2-2-2-2-2-2-2-2-|
 D|-----------------------------------------------------------------|
 B|-----------------------------------------------------------------|

 


 [1] [+] [2] [+] [3] [+] [4] [+] [1] [+] [2] [+] [3] [+] [4] [+] [1] [+] [2] [+] [3] [+] [4] [+] [1] [+] [2] [+] [3] [+] [4] [+] 


 

 
 G|-----------------------------------------------------------------|
 D|-----------------------------------------------------------------|
 A|-----------------------------------------------------------------|
 D|-------------------------2-4-2---------------------------2-4-2-6-|
 B|-2---2-2-2-2-2-2-2-2-2-2-------0-2---2-2-2-2-2-2-2-2-2-2---------|

 


 [1] [+] [2] [+] [3] [+] [4] [+] [1] [+] [2] [+] [3] [+] [4] [+] [1] [+] [2] [+] [3] [+] [4] [+] [1] [+] [2] [+] [3] [+] [4] [+] 


 3:40


 

 
 G|-----------------------------------------------------------------|
 D|-----------------------------------------------------------------|
 A|-0---0-0---0-0-----0-0---0-0---0-2---2-2---2-2-----2-2---2-2-0-2-|
 D|-----------------------------6-----------------------------------|
 B|-----------------------------------------------------------------|

 


 ( T[1]ab[+] f[2]ro[+]m:[3] h[+]tt[4]p:[+]//[1]ww[+]w.[2]gu[+]it[3]ar[+]ta[4]bs[+].c[1]c/[+]ta[2]bs[+]/a[3]/a[+]ve[4]ng[+]ed[1]_s[+]ev[2]en[+]fo[3]ld[+]/c[4]om[+]ing_home_btab.html )


 

 
 G|-----------------------------------------------------------------|
 D|-------------------------1-2-1-----------------------1---1-2-1---|
 A|-4---4-4---4-4-----4-4---------4-2---2-2---2-2-----2---2-------2-|
 D|-----------------------------------------------------------------|
 B|-----------------------------------------------------------------|

 


 [1] [+] [2] [+] [3] [+] [4] [+] [1] [+] [2] [+] [3] [+] [4] [+] [1] [+] [2] [+] [3] [+] [4] [+] [1] [+] [2] [+] [3] [+] [4] [+] 


 

 
 G|-----------------------------------------------------------------|
 D|-----------------------------------------------------1---1-2-----|
 A|-0---0-0---0-0-----0-0---0-0---0-2---2-2---2-2-----2---2-----2-3-|
 D|-----------------------------6-----------------------------------|
 B|-----------------------------------------------------------------|

 


 [1] [+] [2] [+] [3] [+] [4] [+] [1] [+] [2] [+] [3] [+] [4] [+] [1] [+] [2] [+] [3] [+] [4] [+] [1] [+] [2] [+] [3] [+] [4] [+] 


 

 
 G|-----------------------------------------------------------------|
 D|-------------------------1-2-1-----------------------1---1-2-1---|
 A|-4---4-4---4-4-----4-4---------4-2---2-2-2-2-2-2-2-2---2-------2-|
 D|-----------------------------------------------------------------|
 B|-----------------------------------------------------------------|

 


 [1] [+] [2] [+] [3] [+] [4] [+] [1] [+] [2] [+] [3] [+] [4] [+] [1] [+] [2] [+] [3] [+] [4] [+] [1] [+] [2] [+] [3] [+] [4] [+] 


 4:02


 

 
 G|-----------------------------------------------------------------|
 D|-----------------------------------------------------------------|
 A|-0-----0-0-----0-0-4-0-----0-0-0---------------------------------|
 D|---------------------------------4-----4-4-----4-4-4-4---4-4-2-4-|
 B|-----------------------------------------------------------------|

 


 [1] [+] [2] [+] [3] [+] [4] [+] [1] [+] [2] [+] [3] [+] [4] [+] [1] [+] [2] [+] [3] [+] [4] [+] [1] [+] [2] [+] [3] [+] [4] [+] 


 

 
 G|-----------------------------------------------------------------|
 D|-----------------------------------------------------------------|
 A|-2---2-2-2-2-2-2-2-2-2-2-2-2-2-2-3-3-3-3-3-3-3-3-3-3-3-3-3-3-3-3-|
 D|-----------------------------------------------------------------|
 B|-----------------------------------------------------------------|

 


 [1] [+] [2] [+] [3] [+] [4] [+] [1] [+] [2] [+] [3] [+] [4] [+] [1] [+] [2] [+] [3] [+] [4] [+] [1] [+] [2] [+] [3] [+] [4] [+] 


 4:12


 

 
 G|-----------------------------------------------------------------|
 D|---------------6-------------------------------6-----------------|
 A|-2h4-4-4-4-4-4---4-4-4-4-4-4-4-4-2h4-4-4-4-4-4---4-4-4-4-4-4-4-4-|
 D|-----------------------------------------------------------------|
 B|-----------------------------------------------------------------|

 


 [1] [+] [2] [+] [3] [+] [4] [+] [1] [+] [2] [+] [3] [+] [4] [+] [1] [+] [2] [+] [3] [+] [4] [+] [1] [+] [2] [+] [3] [+] [4] [+] 


 

 
 G|-----------------------------------------------------------------|
 D|---------------6-----------------4-----2-----1-----------1---2---|
 A|-2h4-4-4-4-4-4---4-4-4-4-4-4-4-4-------------------4-------------|
 D|-----------------------------------------------------------------|
 B|-----------------------------------------------------------------|

 


 [1] [+] [2] [+] [3] [+] [4] [+] [1] [+] [2] [+] [3] [+] [4] [+] [1] [+] [2] [+] [3] [+] [4] [+] [1] [+] [2] [+] [3] [+] [4] [+] 


 4:24 Verse


 

 
 G|-----------------------------------------------------6-4---------|
 D|---------------6-------------------------------6---------6-4-----|
 A|-2h4-4-4-4-4-4---4-4-4-4-4-4-4-4-2h4-4-4-4-4-4---4-4---------4-2-|
 D|-----------------------------------------------------------------|
 B|-----------------------------------------------------------------|

 


 [1] [+] [2] [+] [3] [+] [4] [+] [1] [+] [2] [+] [3] [+] [4] [+] [1] [+] [2] [+] [3] [+] [4] [+] [1] [+] [2] [+] [3] [+] [4] [+] 


 

 
 G|-----------------------------------------------------------------|
 D|---------------6-----------------4-----2-----1-----------1---2---|
 A|-2h4-4-4-4-4-4---4-4-4-4-4-4-4-4-------------------4-------------|
 D|-----------------------------------------------------------------|
 B|-----------------------------------------------------------------|

 


 [1] [+] [2] [+] [3] [+] [4] [+] [1] [+] [2] [+] [3] [+] [4] [+] [1] [+] [2] [+] [3] [+] [4] [+] [1] [+] [2] [+] [3] [+] [4] [+] 


 

 
 G|-----------------------------------------------------------------|
 D|---------------6-------------------------------6-------------1---|
 A|-2h4-4-4-4-4-4---4-4-4-4-4-4-4-4-2h4-4-4-4-4-4---4-4-4-4-2-4---2-|
 D|-----------------------------------------------------------------|
 B|-----------------------------------------------------------------|

 


 [1] [+] [2] [+] [3] [+] [4] [+] [1] [+] [2] [+] [3] [+] [4] [+] [1] [+] [2] [+] [3] [+] [4] [+] [1] [+] [2] [+] [3] [+] [4] [+] 


 

 
 G|-----------------------------------------------------------------|
 D|---------------6-----------------4-----2-----1-----------1---2---|
 A|-2h4-4-4-4-4-4---4-4-4-4-4-4-4-4-------------------4-------------|
 D|-----------------------------------------------------------------|
 B|-----------------------------------------------------------------|

 


 [1] [+] [2] [+] [3] [+] [4] [+] [1] [+] [2] [+] [3] [+] [4] [+] [1] [+] [2] [+] [3] [+] [4] [+] [1] [+] [2] [+] [3] [+] [4] [+] 


 Pre Chorus 4:45


 

 
 G|-----------------------------------------------------------------|
 D|-----------------------------------------------------------------|
 A|---------------------------------4-5---3-4---2-3---1-2---0-1-0---|
 D|-0-----0-----0-----0-0---0---0---------------------------------2-|
 B|-----------------------------------------------------------------|

 


 [1] [+] [2] [+] [3] [+] [4] [+] [1] [+] [2] [+] [3] [+] [4] [+] [1] [+] [2] [+] [3] [+] [4] [+] [1] [+] [2] [+] [3] [+] [4] [+] 


 Chorus 4:51


 

 
 G|-----------------------------------------------------------------|
 D|-----------------------------------------------------6---7-6-----|
 A|---------------------------------------------------7---7-----7-5-|
 D|-4---4-4---4-4-----4-4---4-6-7-6-2---2-2---2-2-------------------|
 B|-----------------------------------------------------------------|

 


 [1] [+] [2] [+] [3] [+] [4] [+] [1] [+] [2] [+] [3] [+] [4] [+] [1] [+] [2] [+] [3] [+] [4] [+] [1] [+] [2] [+] [3] [+] [4] [+] 


 

 
 G|-----------------------------------------------------------------|
 D|-----------------------------------------------------------------|
 A|---------------------5---5-0-5-7---------------------------------|
 D|-0---0-0---0-0-----0-------------2-2-2-2-----2-2-2-2-----2-2-2-2-|
 B|-----------------------------------------------------------------|

 


 [1] [+] [2] [+] [3] [+] [4] [+] [1] [+] [2] [+] [3] [+] [4] [+] [1] [+] [2] [+] [3] [+] [4] [+] [1] [+] [2] [+] [3] [+] [4] [+] 


 

 
 G|-----------------------------------------------------------------|
 D|-----------------------------------------------------9---7-6-----|
 A|-------------------------------------------------------------7---|
 D|-4---4-4---4-4-----4-4---4-6-7-6-2---2-2---2-2-----2-------------|
 B|-----------------------------------------------------------------|

 


 [1] [+] [2] [+] [3] [+] [4] [+] [1] [+] [2] [+] [3] [+] [4] [+] [1] [+] [2] [+] [3] [+] [4] [+] [1] [+] [2] [+] [3] [+] [4] [+] 


 

 
 G|-----------------------------------------------------------------|
 D|-----------------------------------------------------------------|
 A|-------------------0-5-0-5-0-5-7---------------------------------|
 D|-0---0-0---0-0-------------------2-2-2-2-----2-2-2-2-----2-2-0-2-|
 B|-----------------------------------------------------------------|

 


 [1] [+] [2] [+] [3] [+] [4] [+] [1] [+] [2] [+] [3] [+] [4] [+] [1] [+] [2] [+] [3] [+] [4] [+] [1] [+] [2] [+] [3] [+] [4] [+] 


 Outro 5:12


 

 
 G|-----------------------------------------------------------------|
 D|---------------------------------------------------------7-6-----|
 A|-----------------------------------------------------7-------7-5-|
 D|-4---4-4---4-4-----4-4---4-6-7-6-2---2-2---2-2-----2-------------|
 B|-----------------------------------------------------------------|

 


 [1] [+] [2] [+] [3] [+] [4] [+] [1] [+] [2] [+] [3] [+] [4] [+] [1] [+] [2] [+] [3] [+] [4] [+] [1] [+] [2] [+] [3] [+] [4] [+] 


 

 
 G|-----------------------------------------------------------------|
 D|-----------------------------------------------------------------|
 A|-------------------0-5-0-4-5-7-----------------------------------|
 D|-0---0-0---0-0-----------------0-2---2-2---2-2---2-2-2---2-2-0-2-|
 B|-----------------------------------------------------------------|

 


 [1] [+] [2] [+] [3] [+] [4] [+] [1] [+] [2] [+] [3] [+] [4] [+] [1] [+] [2] [+] [3] [+] [4] [+] [1] [+] [2] [+] [3] [+] [4] [+] 


 

 
 G|-----------------------------------------------------------------|
 D|---------------------------------------------------------6-7-6---|
 A|-----------------------------------------------------7---------7-|
 D|-4---4-4---4-4-----4-6-4-6-7-6-4-2---2-2---2-2-----2-------------|
 B|-----------------------------------------------------------------|

 


 [1] [+] [2] [+] [3] [+] [4] [+] [1] [+] [2] [+] [3] [+] [4] [+] [1] [+] [2] [+] [3] [+] [4] [+] [1] [+] [2] [+] [3] [+] [4] [+] 


 

 
 G|-----------------------------------------------------------------|
 D|---------------------------------7-6---7-6---7-6---7-6---7-6-----|
 A|---------------------5---5-4-5-7-----7-----7-----7-----7-----7---|
 D|-0---0-0---0-0-----0---------------------------------------------|
 B|-----------------------------------------------------------------|

 


 [1] [+] [2] [+] [3] [+] [4] [+] [1] [+] [2] [+] [3] [+] [4] [+] [1] [+] [2] [+] [3] [+] [4] [+] [1] [+] [2] [+] [3] [+] [4] [+] 


 5:34


 

 
 G|-----------------------------------------------------------------|
 D|---------------------------------------------------------2-------|
 A|-----------------------------------------------------2-------2---|
 D|-4---4-4---4-4-----4-4---4-2-4-6-2---2-2---2-2-----2-------------|
 B|-----------------------------------------------------------------|

 


 [1] [+] [2] [+] [3] [+] [4] [+] [1] [+] [2] [+] [3] [+] [4] [+] [1] [+] [2] [+] [3] [+] [4] [+] [1] [+] [2] [+] [3] [+] [4] [+] 


 

 
 G|-----------------------------------------------------------------|
 D|-------------------------------------------------7-6---7-6---7-6-|
 A|-------------------0-5-0-5-0-4-5-7---7-7---7-7-7-----7-----7-----|
 D|-0---0-0---0-0---------------------------------------------------|
 B|-----------------------------------------------------------------|

 


 [1] [+] [2] [+] [3] [+] [4] [+] [1] [+] [2] [+] [3] [+] [4] [+] [1] [+] [2] [+] [3] [+] [4] [+] [1] [+] [2] [+] [3] [+] [4] [+] 


 

 
 G|-----------------------------------------------------------------|
 D|-----------------------------------------------------------------|
 A|-----------------------------------------------------------------|
 D|-4---4-4---4-4-----4-4---4-6-7-6-2---2-2---2-2-----2-2---2-4-2---|
 B|-----------------------------------------------------------------|

 


 [1] [+] [2] [+] [3] [+] [4] [+] [1] [+] [2] [+] [3] [+] [4] [+] [1] [+] [2] [+] [3] [+] [4] [+] [1] [+] [2] [+] [3] [+] [4] [+] 


 

 
 G|-----------------------------------------------------------------|
 D|-----------------------------------------------------------------|
 A|-------------------------------------------------------0-2-2-4---|
 D|-0---0-0---0-0-----0-0---0-0-0-0-2---2-4---4-6---6-7-------------|
 B|-----------------------------------------------------------------|

 


 [1] [+] [2] [+] [3] [+] [4] [+] [1] [+] [2] [+] [3] [+] [4] [+] [1] [+] [2] [+] [3] [+] [4] [+] [1] [+] [2] [+] [3] [+] [4] [+] 


 5:55


 

 
 G|-----------------------------------------------------------------|
 D|-----------------------------------------------------2---2-------|
 A|-----------------------------------------------------------2-----|
 D|-4---4-4---4-4-----4-4---4-6-4---2---2-2---2-2-----2---2-----2---|
 B|-----------------------------------------------------------------|

 


 [1] [+] [2] [+] [3] [+] [4] [+] [1] [+] [2] [+] [3] [+] [4] [+] [1] [+] [2] [+] [3] [+] [4] [+] [1] [+] [2] [+] [3] [+] [4] [+] 


 

 
 G|---------------------------------------------------------------6-|
 D|---------------------------------7-6---9-6---7-6---9-6---9-7-9---|
 A|-------------------0-5-0-5-7-5-0-----7-----7-----7-----7---------|
 D|-0---0-0---0-0---------------------------------------------------|
 B|-----------------------------------------------------------------|

 


 [1] [+] [2] [+] [3] [+] [4] [+] [1] [+] [2] [+] [3] [+] [4] [+] [1] [+] [2] [+] [3] [+] [4] [+] [1] [+] [2] [+] [3] [+] [4] [+] 


 

 
 G|-----------------------------------------------------------------|
 D|-----------------------------------------------------------------|
 A|-----------------------------------------------------------------|
 D|-4---4-4---4-4-----4-4---4-6-7-6-2---2-2---2-2-----2-2---2-2-2-2-|
 B|-----------------------------------------------------------------|

 


 [1] [+] [2] [+] [3] [+] [4] [+] [1] [+] [2] [+] [3] [+] [4] [+] [1] [+] [2] [+] [3] [+] [4] [+] [1] [+] [2] [+] [3] [+] [4] [+] 


 

 
 G|-----------------------------------------------------------------|
 D|-----------------------------------------------------------------|
 A|-----------------------------------------------------------------|
 D|-0---0-0---0-0-----0-0---0-0-0-0-2---2-2---2-2-----2-2---2-2-2-2-|
 B|-----------------------------------------------------------------|


Important: The song above is NOT stored on the Chordie server. The original song is hosted at www.guitartabs.cc. Chordie works as a search engine and provides on-the-fly formatting. Chordie does not index songs against artists'/composers' will. To remove this song please click here.

This song is displayed as text-only. Transposing and tuning is only available for chordpro-songs.
Rate #1 of 3 versions

Jango Player

Login - add to songbook

SHARE PAGE  




You need to log in to post comments