Guitar Tabs, Chords and Lyrics
Server problems seems to be fixed. Chordie has been experiencing problems with songs disappearing. These issues now seems to be fixed, but still verifying the fix. If you find anything strange, please email admin@chordie.com.


Forgotten Faces   Avenged Sevenfold

 
 G|-------------------------------------------------------------------|
 D|o-----------------------------------------------------------------o|
 A|o---------5---------------5h6-6-----------3-3-3-----------6h8-8---o|x4
 D|--0-0-0-0---------0-0-0-0---------0-0-0-0---------0-0-0-0----------|

 


 [1] [+] [2] [+] [3] [+] [4] [+] [1] [+] [2] [+] [3] [+] [4] [+] [1] [+] [2] [+] [3] [+] [4] [+] [1] [+] [2] [+] [3] [+] [4] [+] 


 

 
 G|-----------------------------------------------------------------|
 D|-----------------------------------------------------------------|
 A|-----------------------------------------3---3-----------6h8-8---|
 D|-0-----------------------0-------0-0-0-0---------0-0-0-0---------|

 


 [1] [+] [2] [+] [3] [+] [4] [+] [1] [+] [2] [+] [3] [+] [4] [+] [1] [+] [2] [+] [3] [+] [4] [+] [1] [+] [2] [+] [3] [+] [4] [+] 


 

 
 G|-------------------------------------------------------------(x3)--|-----------------|
 D|o-----------------------------------------------------------------o|-----------------|
 A|o---------5---------------5h6-6-----------3-3-3-----------6h8-8---o|-5-5-5-----------|
 D|--0-0-0-0---------0-0-0-0---------0-0-0-0---------0-0-0-0----------|-----------------|

 


 [1] [+] [2] [+] [3] [+] [4] [+] [1] [+] [2] [+] [3] [+] [4] [+] [1] [+] [2] [+] [3] [+] [4] [+] [1] [+] [2] [+] [3] [+] [4] [+] [1] [+] [2] [+] [3] [+] [4] [+] 


 0:42


 

 
 G|-----------------------------------------------------------------|
 D|-----------------------------------------------------------------|
 A|-5-5---5---5-3-5-3---3---3-3-3-3-6-6---8---8-6-8-5-5-5-----------|
 D|-------------------------------------------------------------0-0-|

 


 [1] [+] [2] [+] [3] [+] [4] [+] [1] [+] [2] [+] [3] [+] [4] [+] [1] [+] [2] [+] [3] [+] [4] [+] [1] [+] [2] [+] [3] [+] [4] [+] 


 

 
 G|-----------------------------------------------------------------|
 D|-----------------------------------------------------------------|
 A|-5-5---5---5-3-5-3---3---3-3-3-3-6---6-8-----6-8-5-5-5-----------|
 D|-----------------------------------------------------------------|

 


 [1] [+] [2] [+] [3] [+] [4] [+] [1] [+] [2] [+] [3] [+] [4] [+] [1] [+] [2] [+] [3] [+] [4] [+] [1] [+] [2] [+] [3] [+] [4] [+] 


 

 
 G|-----------------------------------------------------------------|
 D|-----------------------------------------------------------------|
 A|-5-5---5---5-3-5-3---3---3-3-3-3-6-6---8---8-6-8-5-5-5-----------|
 D|-----------------------------------------------------------------|

 


 [1] [+] [2] [+] [3] [+] [4] [+] [1] [+] [2] [+] [3] [+] [4] [+] [1] [+] [2] [+] [3] [+] [4] [+] [1] [+] [2] [+] [3] [+] [4] [+] 


 

 
 G|-----------------------------------------------------------------|
 D|-----------------------------------------------------------------|
 A|-5-5---5---5-3-5-3---3---3-3-3-3-6---6-8-----6-8-5---\-----------|
 D|---------------------------------------------------------0-------|

 


 [1] [+] [2] [+] [3] [+] [4] [+] [1] [+] [2] [+] [3] [+] [4] [+] [1] [+] [2] [+] [3] [+] [4] [+] [1] [+] [2] [+] [3] [+] [4] [+] 


 

 
 G|-----------------------------------------------------------------|
 D|-----------------------------------------------------------------|
 A|-------------------------------------------------5---5-\---------|
 D|-----------------1-----------3-----------5---------------0-------|

 


 [1] [+] [2] [+] [3] [+] [4] [+] [1] [+] [2] [+] [3] [+] [4] [+] [1] [+] [2] [+] [3] [+] [4] [+] [1] [+] [2] [+] [3] [+] [4] [+] 


 

 
 G|-----------------------------------------------------------------|
 D|-----------------------------------------------------------------|
 A|-------------------------------------------------5-5-5-----------|
 D|-----------------1-----------3-----------5-----------------------|

 


 [1] [+] [2] [+] [3] [+] [4] [+] [1] [+] [2] [+] [3] [+] [4] [+] [1] [+] [2] [+] [3] [+] [4] [+] [1] [+] [2] [+] [3] [+] [4] [+] 


 1:11


 

 
 G|-----------------------------------------------------------------|
 D|-----------------------------------------------------------------|
 A|-5-5---5---5-3-5-3---3---3-3-3-3-6-6---8---8-6-8-5-5-5-----------|
 D|-----------------------------------------------------------------|

 


 [1] [+] [2] [+] [3] [+] [4] [+] [1] [+] [2] [+] [3] [+] [4] [+] [1] [+] [2] [+] [3] [+] [4] [+] [1] [+] [2] [+] [3] [+] [4] [+] 


 

 
 G|-----------------------------------------------------------------|
 D|-----------------------------------------------------------------|
 A|-5-5---5---5-3-5-3---3---3-3-3-3-6-6---8---8-6-8-5-5-5-----------|
 D|-------------------------------------------------------------0-0-|

 


 [1] [+] [2] [+] [3] [+] [4] [+] [1] [+] [2] [+] [3] [+] [4] [+] [1] [+] [2] [+] [3] [+] [4] [+] [1] [+] [2] [+] [3] [+] [4] [+] 


 

 
 G|-----------------------------------------------------------------|
 D|-----------------------------------------------------------------|
 A|-5-5---5---5-3-5-3---3---3-3-3-3-6---6-8---8-6-8-5-5-5-----------|
 D|-----------------------------------------------------------------|

 


 [1] [+] [2] [+] [3] [+] [4] [+] [1] [+] [2] [+] [3] [+] [4] [+] [1] [+] [2] [+] [3] [+] [4] [+] [1] [+] [2] [+] [3] [+] [4] [+] 


 

 
 G|-------------------------------------------------|
 D|-------------------------------------------------|
 A|-5-5---5---5-3-5-3---3---3-3-3-3-6---6-8-----6-8-|
 D|-------------------------------------------------|

 


 [1] [+] [2] [+] [3] [+] [4] [+] [1] [+] [2] [+] [3] [+] [4] [+] [1] [+] [2] [+] [3] [+] [4] [+] 


 1:30


 

 
 G|-----------------------------------------------------------------|
 D|-----------------------------------------------------------------|
 A|-5-----7-----8---3-3---8-----7---------------------4-5-7-5-4-0-0-|
 D|---------------------------------5-----5-5---5---5---------------|

 


 [1] [+] [2] [+] [3] [+] [4] [+] [1] [+] [2] [+] [3] [+] [4] [+] [1] [+] [2] [+] [3] [+] [4] [+] [1] [+] [2] [+] [3] [+] [4] [+] 


 

 
 G|-----------------------------------------------------------------|
 D|-----------------------------------------------------------------|
 A|-5---5-7-----8---3---/-8-----7-----------------------------------|
 D|---------------------------------5---5-5-5-5-5-5-7---3---5---7---|

 


 [1] [+] [2] [+] [3] [+] [4] [+] [1] [+] [2] [+] [3] [+] [4] [+] [1] [+] [2] [+] [3] [+] [4] [+] [1] [+] [2] [+] [3] [+] [4] [+] 


 

 
 G|-----------------------------------------------------------------|
 D|-----------------------------------------------------------------|
 A|-5-----7-----8---3---/-8-----7---------------------4-5-7-5-4-0-0-|
 D|---------------------------------5-----5-5---5---5---------------|

 


 ( T[1]ab[+] f[2]ro[+]m:[3] h[+]tt[4]p:[+]//[1]ww[+]w.[2]gu[+]it[3]ar[+]ta[4]bs[+].c[1]c/[+]ta[2]bs[+]/a[3]/a[+]ve[4]ng[+]ed[1]_s[+]ev[2]en[+]fo[3]ld[+]/f[4]or[+]gotten_faces_btab_ver_2.html )


 

 
 G|-----------------------------------------------------------------|
 D|-----------------------------------------------------------------|
 A|-5---5-7-----8---3---/-8-----7---------------------7-5-4-5-4-0---|
 D|---------------------------------5---5-5-5-5-5-5-5-------------5-|

 


 [1] [+] [2] [+] [3] [+] [4] [+] [1] [+] [2] [+] [3] [+] [4] [+] [1] [+] [2] [+] [3] [+] [4] [+] [1] [+] [2] [+] [3] [+] [4] [+] 


 1:50


 

 
 G|-------------------------------------------------------------------|
 D|o-----------------------------------------------------------------o|
 A|o-------------------------------------------------1-1-1-----------o|x4
 D|--0-0-0-0-0-------5-5-5-5-5-------3-3-3-3-3---------------3-3-3----|

 


 [1] [+] [2] [+] [3] [+] [4] [+] [1] [+] [2] [+] [3] [+] [4] [+] [1] [+] [2] [+] [3] [+] [4] [+] [1] [+] [2] [+] [3] [+] [4] [+] 


 2:09


 

 
 G|-----------------------------------------------------------------|
 D|-----------------------------------------------------------------|
 A|-----------------------------------------------------------------|
 D|-0-------------0-0---------0---0-3---3-3-3---3-3---3-3-3-3---3-3-|

 


 [1] [+] [2] [+] [3] [+] [4] [+] [1] [+] [2] [+] [3] [+] [4] [+] [1] [+] [2] [+] [3] [+] [4] [+] [1] [+] [2] [+] [3] [+] [4] [+] 


 

 
 G|-----------------------------------------------------------------|
 D|-----------------------------------------------------------------|
 A|-----------------------------------------------------------------|
 D|-0-------0-----0---0-0-0-0---0-0-3-------3---3-3---3-3-3-3---3-3-|

 


 [1] [+] [2] [+] [3] [+] [4] [+] [1] [+] [2] [+] [3] [+] [4] [+] [1] [+] [2] [+] [3] [+] [4] [+] [1] [+] [2] [+] [3] [+] [4] [+] 


 2:21


 

 
 G|-----------------------------------------------------------------|
 D|-----------------------------------------------------------------|
 A|-----------------------------------------------------------------|
 D|-0-------0-----0---------0-0-0-0-3---3-3-3-----3---3-3-3-3---3-3-|

 


 [1] [+] [2] [+] [3] [+] [4] [+] [1] [+] [2] [+] [3] [+] [4] [+] [1] [+] [2] [+] [3] [+] [4] [+] [1] [+] [2] [+] [3] [+] [4] [+] 


 

 
 G|-----------------------------------------------------------------|
 D|-----------------------------------------------------------------|
 A|-----------------------------------------------------------------|
 D|-0-------0-----0---0-0---0---0-0-3-3-3-3-3-3-3-3-3-3-3-3-3-3-3-3-|

 


 [1] [+] [2] [+] [3] [+] [4] [+] [1] [+] [2] [+] [3] [+] [4] [+] [1] [+] [2] [+] [3] [+] [4] [+] [1] [+] [2] [+] [3] [+] [4] [+] 


 2:31


 

 
 G|-----------------------------------------------------------------|
 D|-----------------------------------------------------------------|
 A|-----------------------------------------------------------------|
 D|-0-----0-----0-0---0-0---0-0-0-0-3-----3-----3-3---3-3---3-3-3-3-|

 


 [1] [+] [2] [+] [3] [+] [4] [+] [1] [+] [2] [+] [3] [+] [4] [+] [1] [+] [2] [+] [3] [+] [4] [+] [1] [+] [2] [+] [3] [+] [4] [+] 


 

 
 G|-----------------------------------------------------------------|
 D|-----------------------------------------------------------------|
 A|-----------------------------------------------------------------|
 D|-0-----0-----0-0---0-0---0-0-0-0-3-----3-3---3-3---3-3---3-3-3-3-|

 


 [1] [+] [2] [+] [3] [+] [4] [+] [1] [+] [2] [+] [3] [+] [4] [+] [1] [+] [2] [+] [3] [+] [4] [+] [1] [+] [2] [+] [3] [+] [4] [+] 


 

 
 G|-----------------------------------------------------------------|
 D|-----------------------------------------------------------------|
 A|-----------------------------------------------------------------|
 D|-0-0-0-0-----0-0---0-0---0-0-0-0-3-----3-----3-3---3-3---3-3-3-3-|

 


 [1] [+] [2] [+] [3] [+] [4] [+] [1] [+] [2] [+] [3] [+] [4] [+] [1] [+] [2] [+] [3] [+] [4] [+] [1] [+] [2] [+] [3] [+] [4] [+] 


 

 
 G|-----------------------------------------------------------------|
 D|-----------------------------------------------------------------|
 A|-----------------------------------------------------------------|
 D|-0-----0-----0-0---0-0---0-0-0-0-3---3---3---3---3---3---3---3---|

 


 [1] [+] [2] [+] [3] [+] [4] [+] [1] [+] [2] [+] [3] [+] [4] [+] [1] [+] [2] [+] [3] [+] [4] [+] [1] [+] [2] [+] [3] [+] [4] [+] 


 2:52


 

 
 G|-----------------------------------------------------------------|
 D|-----------------------------------------------------------------|
 A|-1-----1-1-1-1-1-1-1-1---1-1---1-----------------3-----3-3-3-3-3-|
 D|---------------------------------0-----0-0-0-0-0-----------------|

 


 [1] [+] [2] [+] [3] [+] [4] [+] [1] [+] [2] [+] [3] [+] [4] [+] [1] [+] [2] [+] [3] [+] [4] [+] [1] [+] [2] [+] [3] [+] [4] [+] 


 

 
 G|-----------------------------------------------------------------|
 D|-----------------------------------------------------------------|
 A|-1---1-1-1---1-1-1---1--/13----------------------3---3-3-3-3-3---|
 D|-----------3---------------------0---0-0-0-0-0-------------------|

 


 [1] [+] [2] [+] [3] [+] [4] [+] [1] [+] [2] [+] [3] [+] [4] [+] [1] [+] [2] [+] [3] [+] [4] [+] [1] [+] [2] [+] [3] [+] [4] [+] 


 

 
 G|-----------------------------------------------------------------|
 D|-----------------------------------------------------------------|
 A|-1---1-1-1---1-1-1---1-3-1-0-----5---\---------------------------|
 D|-----------3-----------------3-----------0-----------------------|

 


 [1] [+] [2] [+] [3] [+] [4] [+] [1] [+] [2] [+] [3] [+] [4] [+] [1] [+] [2] [+] [3] [+] [4] [+] [1] [+] [2] [+] [3] [+] [4] [+] 


 

 
 G|-----------------------------------------------------------------|
 D|-----------------------------------------------------------------|
 A|-5---\---------------------------5---\---------------------------|
 D|---------0-------------------------------0-----------------------|

 


 [1] [+] [2] [+] [3] [+] [4] [+] [1] [+] [2] [+] [3] [+] [4] [+] [1] [+] [2] [+] [3] [+] [4] [+] [1] [+] [2] [+] [3] [+] [4] [+] 


 

 
 G|-----------------------------------------------------------------|
 D|-----------------------------------------------------------------|
 A|-5---\-------------------0-------5---5-\-----------------0---0---|
 D|---------0-------0h3-0h5-----------------0---0-0-3---5-----------|

 


 [1] [+] [2] [+] [3] [+] [4] [+] [1] [+] [2] [+] [3] [+] [4] [+] [1] [+] [2] [+] [3] [+] [4] [+] [1] [+] [2] [+] [3] [+] [4] [+] 


 

 
 G|-----------------------------------------------------------------|
 D|-----------------------------------------------------------------|
 A|-5---5-\-----------------0---0---5---5-\-----------------0---0---|
 D|---------0---0-0-3---5-------------------0---0-0-3---5-----------|

 


 [1] [+] [2] [+] [3] [+] [4] [+] [1] [+] [2] [+] [3] [+] [4] [+] [1] [+] [2] [+] [3] [+] [4] [+] [1] [+] [2] [+] [3] [+] [4] [+] 


 

 
 G|-----------------------------------------------------------------|
 D|-----------------------------------------------------------------|
 A|-5---5-\-----------------0---0---5---\---------------------------|
 D|---------0---0-0-3---5-------------------0-----------------------|


Important: The song above is NOT stored on the Chordie server. The original song is hosted at www.guitartabs.cc. Chordie works as a search engine and provides on-the-fly formatting. Chordie does not index songs against artists'/composers' will. To remove this song please click here.

This song is displayed as text-only. Transposing and tuning is only available for chordpro-songs.
Rate #1 of 2 versions

Login - add to songbook

SHARE PAGE  




You need to log in to post comments