Guitar Tabs, Chords and Lyrics
Server problems seems to be fixed. Chordie has been experiencing problems with songs disappearing. These issues now seems to be fixed, but still verifying the fix. If you find anything strange, please email admin@chordie.com.


Gunslinger  Avenged Sevenfold

For the Fbend chords just hit the 3rd fret on the low D string and bend !/4 and release
On the D5 alternate between the top 3 and the bottom 23 or 023 (Vibrato on the 3)
There are a lot of chords, but its how they play it
the chords arnt too complicated
email: HavoCentral@aol.com
Tuning: Drop-D
D5 x3x23x(Intro & Verse 1)
D5 x3023x(Verse 2)
Dsus2 xx323x
D 00023x
D2 00xxxx
Dm x57060
Dm2 xx0231
Dm# x57765
Dm11 x57068
F 3x3211
Fbend third fret on low D string !/4 bend
C x35050
C2 x35057
C3 x32010
C/E 2x2010
Am7 x02010
Bb x13030
Bb2 x1333x
Gm 5x5333
Intro
D5 Dsus2 D5 Fbend D2 X2
Verse
D Fbend D2
Yeah you've been alone
D Fbend D2
I've been gone for far to long
[Bb]But with all that we've been through
[C]After all this time I'm coming home to you
D5 Dsus2 D5 Fbend D2
D Fbend D2
Never let it show
D Fbend D2
The pain I've grown to know
[Bb]'Cause with all that we've been through
[C]It don't matter when I'm coming home to you
Chorus
[Dm]I reach towards the sky
[C]I've said my goodbyes
[Am]My hearts always with you[Bb]
[Bb]Now
[Dm]I won't ques[Dm11]tion why
So man[C]y h[C2]ave died
My prayers [Am]have made it through [Bb]
[Bb]yeah
[Bb]'Cause with all that we've been through
[C]It don't matter when I'm coming home to you
Interlude
 
 --------------------------------|----------------------13-13-13-13----|----||
 --------------------------------|----------------------12-12-12-12----|----||
 --------------------------------|----------------------0--0--0--0-----|----||
 --------------------------------|-------------------------------------|----|| X2
 --0---3---5---6-----10-10-10-10-|--0----3----0--0--0------------------|----||
 --0---3---5---6-----10-10-10-10-|--0----3----0--0--0------------------|----||

PM|.....|
Verse
D5 Dsus2 D5 Fbend D2
Letters keep me warm
( Tab from: http://www.guitartabs.cc/tabs/a/avenged_sevenfold/gunslinger_crd_ver_3.html )
D5 Dsus2 D5 Fbend D2
Help me through the storm
[Bb]But with all that wev'e been through
[C]After all this time I'm coming home to you
Chorus
[Dm]I reach towards the sky
[C]I've said my goodbyes
[Am]My hearts always with yo[Bb]u
[Bb]Now
[Dm]I won't ques[Dm11]tion why
So man[C]y h[C2]ave died
My prayers [Am]have made it through
[Bb]Yeah
[Bb]'Cause with all the things we do
[C]It don't matter when I'm coming home to you[Bb2]
Bridge
[Bb2]I've always been t[C3]rue
I've waited so lo[F]ng
Just to [C3]come hold y[Dm2]ou
I'm [C3]making it through[Bb2]
[Bb2]It's been far too lo[C3]ng
We've proven our [F]love
Over t[C3]ime so st[Dm2]rong
In a[C3]ll that we do[Bb2]
[Bb2]The stars in the night[C3]
They lend me their lig[Dm2]ht
To b[C/E]ring me clo[F]ser
To h[Gm]eaven wi[F]th you
Solo
W W H H H H
 
 E||----x----x-----x----x----x----x--|
 B||----3----5----10----5----6----5--|
 G||----3----5----10----5----7----5--|
 D||----3----5----10----5----7----5--| X2
 A||----x----x-----x----x----x----x--|
 E||----x----x-----x----x----x----x--|

But with all that we've been through After all this time I'm coming home to you
W W
 
 ----------0-------------------------|-------0--------||
 ----------3-------------------------|-------1--------||
 ----------0-------------------------|-------0--------||
 ----------3-------------------------|-------2--------||
 ----------1-------------------------|-------3--------||
 ------------------------------------|----------------||

Chorus
[Dm]I reach towards the sky
[C]I've said my goodbyes
[Am]My hearts always with you
[Bb]Now
[Dm]I won't ques[Dm11]tion why
So man[C]y h[C2]ave died
My prayers [Am]have made it through
[Bb]Yeah
[Bb]'Cause with all the things we do
[C]It don't matter when I'm coming home to you[Bb]
[Bb]But with all that we've been through
[C]After all this time I'm coming home to you
[Dm]Dm [C]C ([Am7]Am7 [Bb]Bb) Strum Once
Pause Dm3 Strum Once Slowly

Important: The song above is NOT stored on the Chordie server. The original song is hosted at www.guitartabs.cc. Chordie works as a search engine and provides on-the-fly formatting. Chordie does not index songs against artists'/composers' will. To remove this song please click here.

Text color:
Chord color:
Chord grids: 
Font size:    
Page size: 

Am Am7 Bb Bb2 C C/E C2 C3 Dm Dm11 F Gm
Rate #1 of 16 versions

Jango Player

Login - add to songbook

SHARE PAGE  



You need to log in to post comments