Guitar Tabs, Chords and Lyrics
Major upgrade!! After one year development the new version of Chordie is now online! Please give feedback.


Seize the Day   Avenged Sevenfold

 
 -------------------------------------------------------------------------------

 


 "Seize the Day" lead guitar - Avenged Sevenfold


 

 
 -------------------------------------------------------------------------------

 


 Tabbed by: [travis]


 Email: syn_gates_punk14@msn.com


 


 Tuning: Drop D (D A D G B E)


 


 Key:


 x= muted string


 B= bend


 ...= palm mute


 /\= slides




 h= hammer on


 p= pull off


 r()= bring bent note back to note in ()s.


 


 *This tab is only tabbed out for the distorted guitar. It doesn't include


 the solo, that's in the other tab I posted. This is probably the only easy


 tab of this song that you'll get.*


 


 *Also note that the lyrics are not written directly each chord correctly. This


 is to show you what part that riff is for.* The +++++++s are to divide each


 section up.


 


 *Basically all the chords are strummed slowly, even if closed together. Listen


 to the song to get the feel of it.


 


 Guitar 1:


 Intro: Clean tone with chorus effect:


 

 
 e|-------------------------0---1-|
 B|-2----1----3---------3---------|
 G|-0---------0----0----0---0---2-|
 D|------3----------------------0-|
 A|----------------3----1---3-----|
 D|-------------------------------|

 


 For this part, play with your fingers. Those notes are played at different times, where,


 there's no drums or bass. Basically for this part: "Seize the day or die regretting


 the time you lost. It's empty and cold without you here, too many people to ache over."


 


 [+++++++++++++++++++++++++++++++++++++++++++++++++++++++++++++++]Guitar 2:


 "I see my vision burn, I feel my memories fade with time,"


 

 
 e|-------------------------------------------------------|
 B|-------------------------------------------------------|
 G|-------------------------------5---5----------5p\2--5--|
 D|--------5--5------5-5-5-5-5-5--5---5----------------x--|
 A|-3-3-4--5--5------5-5-5-5-5-5--3---3-----5h/7-------7--|
 D|-3-3-4--5--5------5-5-5-5-5-5--------------------------|

 


 


 [++++++++++++++++++++++++++++++++++++++++++++++++++++++++++++++++]Guitar 2:


 "but I'm too young to worry."


 

 
 e|--------------------------------------------------|
 B|--------------------------------------------------|
 G|-10-------10--9-------9-\7----7----7----7--7-7----|
 D|-10-------10--10------10\7----7----7----7--7-7----|
 A|-8--------8---7-------7-\5----5----5----5--5-5--0-|
 D|------------------------------------------------0-|

 


 


 [++++++++++++++++++++++++++++++++++++++++++++++++++++++++++++++++++]Guitar 2:


 "These streets we travel on will undergo our same lost past."


 

 
 e|---------------------------------------------------------|
 B|---------------------------------------------------------|
 G|-----------------------------5---5--------------5--------|
 D|-5--5----5---5----5--5--5-5--5---5-----------------------|
 A|-5--5----5---5----5--5--5-5--3---3---------5h/7-----7\0--|
 D|-5--5----5---5----5--5--5-5------------------------------|

 


 


 Guitar 3:


 

 
 e|-------------------------------------|
 B|-------------------------------------|

 


 G|-10b[12]~~~~~~~~~~~~--10b[11]~~~~~~~~|


 

 
 D|---------------------x---------------|
 A|--------------------x----------------|
 D|-------------------------------------|

 


 [++++++++++++++++++++++++++++++++++++++++++++++++++++++++++++++++++++]  


 Guitar 2:


 

 
 e|----------------------|
 B|----------------------|
 G|10--------------(10)\-|
 D|10--------------(10)\-|
 A|-8--------------(8)-\-|
 D|----------------------|

 


 


 Guitar 3:


 

 
 e|----------------------------------------------|
 B|-(11)-----r(10)--(10)\-/17b[18]~~~~~~~~~~~~---|
 G|-------------------------------------------14\|
 D|----------------------------------------------|
 A|----------------------------------------------|
 D|----------------------------------------------|

 


 [+++++++++++++++++++++++++++++++++++++++++++++++++++++++++++++++++++++]  


 Only acoustic guitar on this part:


 "I found you here, now please just stay for a while, I can move on


 with you around. I hand you my mortal life, but will it be forever?"


 


 [+++++++++++++++++++++++++++++++++++++++++++++++++++++++++++++++++++++]  


 Guitar 2:


 "I'd do anything for a smile, holding you till our time is done."


 

 
 e|-------1-------------3---3---------1---1-----3-----1---0-1-|
 B|---3-----3---------3---3---3-----1---1---------1-----------|
 G|-----2-----2-------------------------------------0---------|
 D|-0-----------0---5-----------5--3--------3-----------------|
 A|-----------------------------------------------------------|
 D|-----------------------------------------------------------|

 


 


 [+++++++++++++++++++++++++++++++++++++++++++++++++++++++++++++++++++++++]  


 Guitar 2:


 "We both know the day will come but I don't wanna leave you."


 

 
 e|-----1-------------3---3---------1---1-------0------1--|
 B|-3-----3---------3---3---------1---1---1-------1-------|
 G|---2-----2---------------------------------------0-----|
 D|-----------0---5---------5---3-----------3-------------|
 A|-------------------------------------------------------|
 D|-------------------------------------------------------|

 


 


 [++++++++++++++++++++++++++++++++++++++++++++++++++++++++++++++++++++++++]  


 Guitar 2:


 "I see my vision burn, I feel my memories fade with time,"


 

 
 e|------------------------------------------------------------|
 B|------------------------------------------------------------|
 G|--------------------------------5-----5-5-5----5-5-5---(5)/-|
 D|---------5-----5-----5-5-5-5----5-----5-5-5----5-5-5---(5)/-|
 A|-3-3-4---5-----5-----5-5-5-5----3-----3-3-3----3-3-3---(3)/-|
 D|-3-3-4---5-----5-----5-5-5-5--------------------------------|

 


 


 [++++++++++++++++++++++++++++++++++++++++++++++++++++++++++++++++++++++++]  


 Guitar 2:


 "I'm too young to worry." "A melody, a memory, just one picture."


 

 
 e|---------------------------------------------------|
 B|---------------------------------------------------|
 G|-/10-----10--9----------9----(9)-\--7--------7\3~--|
 D|-/10-----10--10---------10---(10)\--7--------7\3~--|
 A|-/8-------8--7----------7----(7)-\--5--------5\1~--|
 D|---------------------------------------------------|

 


 


 Guitar 3:


 

 
 e|-13-----12------------------------------------------------------------|
 B|--------------------15~~~~~~~~~~~~~~~~~~~~~~~(15)[feedback]~~~~~~~~---|
 G|---------------14-----------------------------------------------------|
 D|----------------------------------------------------------------------|
 A|----------------------------------------------------------------------|
 D|----------------------------------------------------------------------|

 


 


 [++++++++++++++++++++++++++++++++++++++++++++++++++++++++++++++++++++++++++]  


 Guitar 2:


 "Seize the day or die regretting the time you lost. It's empty and cold without"


 

 
 e|---------------------------------------------------------------------------|
 B|---------------------------------------------------------------------------|
 G|-7-7-7-7--7/10-----10---10-10---10/12---12-12---12\5----5-(5)--------------|
 D|-7-7-7-7--7/10-----10---10-10---10/12---12-12---12\5----5-(5)--------------|
 A|-5-5-5-5--5/8-------8----8--8----8/10---10-10---10\3----3-(3)--------------|
 D|---------------------------------------------------------------------------|

 


 


 [++++++++++++++++++++++++++++++++++++++++++++++++++++++++++++++++++++++++++]  


 Guitar 2:


 "you here, too many people to ache over."


 

 
 e|----------------------------------------------------------|
 B|----------------------------------------------------------|
 G|-\3--------3/5-----5----(5)/10--------------------(10)\---|
 D|-\3--------3/5-----5----(5)/-x----------------------x-\---|
 A|-\1--------1/3-----3----(3)/-8---------------------(8)\---|
 D|----------------------------------------------------------|

 


 


 [++++++++++++++++++++++++++++++++++++++++++++++++++++++++++++++++++++++++++]Acoustic Guitar only:


 "New born life replacing all of us, changing this fable we live in. No longer


 needed here, so where do we go?"


 


 [++++++++++++++++++++++++++++++++++++++++++++++++++++++++++++++++++++++++++]  


 Guitar 2:


 "Will you take a journey tonight, follow me past the walls of death?"


 

 
 e|-------1-------------3---3---------1---1-----3-----1---0-1-|
 B|---3-----3---------3---3---3-----1---1---------1-----------|
 G|-----2-----2-------------------------------------0---------|
 D|-0-----------0---5-----------5--3--------3-----------------|
 A|-----------------------------------------------------------|
 D|-----------------------------------------------------------|

 


 


 [++++++++++++++++++++++++++++++++++++++++++++++++++++++++++++++++++++++++++]  


 Guitar 2:


 "But girl, what if there's no eternal life?"


 

 
 e|-----1-------------3---3---------1---1-------0------1--|
 B|-3-----3---------3---3---------1---1---1-------1-------|
 G|---2-----2---------------------------------------0-----|
 D|-----------0---5---------5---3-----------3-------------|
 A|-------------------------------------------------------|
 D|-------------------------------------------------------|

 


 


 [++++++++++++++++++++++++++++++++++++++++++++++++++++++++++++++++++++++++++]Guitar 2:


 "I see my vision burn, I feel my memories fade with time, I'm too young to worry."


 

 
 e|-------------------------------------------------------------------------------|
 B|-------------------------------------------------------------------------------|
 G|---------------------------------5---5-5-5---5--------5--10---10--9----9---(9)-|
 D|--------5---5----5----5-5--5-5---5---5-5-5---5--------5--10---10--10---10--(10)|
 A|-3-3-4--5---5----5----5-5--5-5---3---3-3-3---3--5h/7------8----8--7----7---(7)-|
 D|-3-3-4--5---5----5----5-5--5-5-------------------------------------------------|

 


 


 Guitar 3:


 

 
 e|-13-----12------------------------------------------------------------|
 B|--------------------15~~~~~~~~~~~~~~~~~~~~~~~(15)[feedback]~~~~~~~~---|
 G|---------------14-----------------------------------------------------|
 D|----------------------------------------------------------------------|
 A|----------------------------------------------------------------------|
 D|----------------------------------------------------------------------|

 


 


 [+++++++++++++++++++++++++++++++++++++++++++++++++++++++++++++++++++++++++++]Acoustic guitar only, and Guitar 3 doing some feedback:


 "a melody, a memory, just one picture."


 [+++++++++++++++++++++++++++++++++++++++++++++++++++++++++++++++++++++++++++]  


 Guitar 2:


 "Seize the day or die regretting the time you lost, It's empty and cold without you here, too


 many people to ache over, (Yeah, Yeah, Yeah.)."


 

 
 e|----------------------------------------------------------------------------------------------|
 B|----------------------------------------------------------------------------------------------|
 G|-7-7--7--7--7/10---10--10/12----12--/5----5--5\3---3--/5---5---5-----7--7-7--7-7-7-7-7--7--7--|
 D|-7-7--7--7--7/10---10--10/12----12--/5----5--5\3---3--/5---5---5-----7--7-7--7-7-7-7-7--7--7--|
 A|-5-5--5--5--5/8-----8---8/10----10--/3----3--3\1---1--/3---3---3--0--5--5-5--5-5-5-5-5--5--5--|
 D|------------------------------------------------------------------0---------------------------|

 


 


 [++++++++++++++++++++++++++++++++++++++++++++++++++++++++++++++++++++++++++++]  


 Guitar 2:


 "Trials in life, questions of us existing here, don't wanna die alone without you here,


 please tell me what we have is real."


 

 
 e|--------------------------------------------------------|
 B|--------------------------------------------------------|
 G|-7--7-7/10---10--/12---12----/5--5\3---3---3/5---5---5/-|
 D|-7--7-7/10---10--/12---12----/5--5\3---3---3/5---5---5/-|
 A|-5--5-5/8----8---/10---10----/3--3\1---1---1/3---3---3/-|
 D|--------------------------------------------------------|

 


 


 [+++++++++++++++++++++++++++++++++++++++++++++++++++++++++++++++++++++++++++]Guitar Solo 1:


 Guitar 2:


 

 
 e|-----------------------------------------------------------------------------------|
 B|-----------------------------------------------------------------------------------|
 G|--------------------------5--5-5-5--5--5-5-5/7-7---7-7--7--7-7-7\3--3---3---3--3---|
 D|-3----3-----3-3-3--3-3-3--5--5-5-5--5--5-5-5/7-7---7-7--7--7-7-7\3--3---3---3--3---|
 A|-3----3-----3-3-3--3-3-3--3--3-3-3--3--3-3-3/5-5---5-5--5--5-5-5\1--1---1---1--1-0-|
 D|-3----3-----3-3-3--3-3-3---------------------------------------------------------0-|

 


 


 [+++++++++++++++++++++++++++++++++++++++++++++++++++++++++++++++++++++++++++++]Guitar 2:


 

 
 e|----------------------------------------------------------|
 B|----------------------------------------------------------|
 G|----------------------------5--5--5-5-5-5---5-5--5----5/--|
 D|-3--3--3-3-3-3---3-3--3--3--5--5--5-5-5-5---5-5--5----5/--|
 A|-3--3--3-3-3-3---3-3--3--3--3--3--3-3-3-3---3-3--3----3/--|
 D|-3--3--3-3-3-3---3-3--3--3--------------------------------|

 


 


 Guitar 3:


 

 
 e|-----------------------------------------------------------|
 B|-6--6--6---6-6---6--6---6--5--5---5---5---5--5--5-5---6--5-|
 G|-5--5--5---5-5---5--5---5--5--5---5---5---5--5--5-5---5--5-|
 D|-3--3--3---3-3---3--3---3-----5---5---5---5--5--5-5---5--5-|
 A|-3--3--3---3-3---3--3---3-----3---3---3---3--3--3-3---3--3-|
 D|-3--3--3---3-3---3--3---3----------------------------------|

 


 


 [+++++++++++++++++++++++++++++++++++++++++++++++++++++++++++++++++++++++++++++++]  


 Guitar 2:


 

 
 e|---------------------------------------------------------------|
 B|---------------------------------------------------------------|
 G|/7--7---7-7-7-7---7--7----7-7\3--3---3-3-3--3---3-3---3----3---|
 D|/7--7---7-7-7-7---7--7----7-7\3--3---3-3-3--3---3-3---3----3---|
 A|/5--5---5-5-5-5---5--5----5-5\1--1---1-1-1--1---1-1---1----1---|
 D|---------------------------------------------------------------|

 


 


 Guitar 3:


 

 
 e|-----------------------------------------------------------------|
 B|-6-------x-6-----5------------------------------3--3---------3/--|
 G|-7-------x-7-----5--------7--5\3-----------3--3------3--3--------|
 D|-7-------x-7-----5--------7--5\3---------------------------------|
 A|-5-------x-5--------------5--3\1---------------------------------|
 D|-----------------------------------------------------------------|

 


 


 [+++++++++++++++++++++++++++++++++++++++++++++++++++++++++++++++++++++++++++++++]  


 Guitar 2:


 

 
 e|----------------------------------------------------------|
 B|----------------------------------------------------------|
 G|----------------------------5--5--5-5-5-5---5-5--5----5/--|
 D|-3--3--3-3-3-3---3-3--3--3--5--5--5-5-5-5---5-5--5----5/--|
 A|-3--3--3-3-3-3---3-3--3--3--3--3--3-3-3-3---3-3--3----3/--|
 D|-3--3--3-3-3-3---3-3--3--3--------------------------------|

 


 


 Guitar 3:


 

 
 e|--------------------------------------------------------------------------------|
 B|-6-----6----6--6------6-----6p\5-----------------------------------10---10--10--|
 G|-5-----5-----------5----------------12-----------12-------12---12--12---12--12--|
 D|-3-----3----------------------------10-----------10---10-------10--10---10--10--|
 A|-3-----3----------------------------10-----------10------------10--10---10--10--|
 D|-3-----3----------------------------10-----------10------------10--10---10--10--|

 


 


 [++++++++++++++++++++++++++++++++++++++++++++++++++++++++++++++++++++++++++++++++]  


 Guitar 2:


 

 
 e|---------------------------------------------------------------|
 B|---------------------------------------------------------------|
 G|/7--7---7-7-7-7---7--7----7-7\3--3---3-3-3--3---3-3---3----3---|
 D|/7--7---7-7-7-7---7--7----7-7\3--3---3-3-3--3---3-3---3----3---|
 A|/5--5---5-5-5-5---5--5----5-5\1--1---1-1-1--1---1-1---1----1---|
 D|---------------------------------------------------------------|

 


 


 Guitar 3:


 

 
 e|--------------------------------------------------------------|
 B|-6~~~~~~~~~~-6---5-------------3------------------------------|
 G|-5~~~~~~~~~~-5---5----7---5\3--------3----3--------------(3)/-|
 D|-7~~~~~~~~~~-7---5----7---5\3--------3----3--------------(3)/-|
 A|-5~~~~~~~~~~----------5---3\1--------1----1--------------(1)/-|
 D|--------------------------------------------------------------|

 


 


 [+++++++++++++++++++++++++++++++++++++++++++++++++++++++++++++++++++++++++++++++++]  


 Guitar 2:


 "So what if I never hold you, yeah, or kiss your lips again?"


 

 
 e|-----------------------------------------------------------------------------------|
 B|-----------------------------------------------------------------------------------|
 G|-----------------------------------------------------------------7--7----7-7-7-7\-3|
 D|-7----7--7-7-7-7---7---x-x--14---14-14-14--14-14-14-14--14--14\--7--7----7-7-7-7\-3|
 A|-3----7--7-7-7-7---7---x-x--14---14-14-14--14-14-14-14--14--14\--5--5----5-5-5-5\-1|
 D|-3----3--3-3-3-3---3---x-x--10---10-10-10--10-10-10-10--10--10\--------------------|

 


 


 Guitar 3:


 

 
 e|---------------------------------------------------------------------------|
 B|---------------------------------------------------------------------------|
 G|------------------------------5------9---10---12--\7--/10--10--12--14\--3--|
 D|-3----3----------3-3-3-3--3---5------x---x-----x---7--/-x---x---x---x\--3--|
 A|-3----3----------3-3-3-3--3---3------7---8----10--\5--/-8---8--10--12\--1--|
 D|-3----3----------3-3-3-3--3------------------------------------------------|

 


 


 [++++++++++++++++++++++++++++++++++++++++++++++++++++++++++++++++++++++++++++++++]  


 Guitar 2:


 "Whoa. So I never wanna leave you, and the"


 

 
 e|----------------------------------------------------------------------------------|
 B|----------------------------------------------------------------------------------|
 G|-3-3------------------------------------------------------------------------------|
 D|-3-3---------3-----------(3)/--7----7-------7-7-7-7------x--x----14------15---14\-|
 A|-1-1---3h/5--------------------3----7-------7-7-7-7------x--x----10------10---10\-|
 D|-------------------------------3----3-------3-3-3-3------x--x----10------10---10\-|

 


 


 Guitar 3:


 

 
 e|----------------------|
 B|----------------------|
 G|-5-----9---10----12\--|
 D|-5-----x----x-----x\--|
 A|-3-----7----8----10\--|
 D|----------------------|

 


 


 [++++++++++++++++++++++++++++++++++++++++++++++++++++++++++++++++++++++++++++++++]  


 Guitar 2:


 "memories, of us to see, I beg, don't leave me."


 

 
 e|---------------------------------------------------------------|
 B|---------------------------------------------------------------|
 G|---------------------------------------------------------------|
 D|-\8------------------------------------------------------(8)/--|
 A|-\8------------------------------------------------------(8)/--|
 D|-\8------------------------------------------------------(8)/--|

 


 


 Guitar 3:


 

 
 e|---------------------------------------------------------------|
 B|---------------------------------------------------------------|
 G|-7----------------(7)\3----------------------///###########\\\-|
 D|-x----------------(x)\x----------------------///###########\\\-|
 A|-5----------------(5)\1----------------------------------------|
 D|---------------------------------------------------------------|

 


 


 [+++++++++++++++++++++++++++++++++++++++++++++++++++++++++++++++++++++++++++++++++]  


 Guitar 2:


 "Seize the day or die regretting the time you lost, It's empty and cold without you here, too


 many people to ache over, (Yeah, Yeah, Yeah.)."


 

 
 e|----------------------------------------------------------------------------------------------|
 B|----------------------------------------------------------------------------------------------|
 G|-7-7--7--7--7/10---10--10/12----12--/5----5--5\3---3--/5---5---5-----7--7-7--7-7-7-7-7--7--7--|
 D|-7-7--7--7--7/10---10--10/12----12--/5----5--5\3---3--/5---5---5-----7--7-7--7-7-7-7-7--7--7--|
 A|-5-5--5--5--5/8-----8---8/10----10--/3----3--3\1---1--/3---3---3--0--5--5-5--5-5-5-5-5--5--5--|
 D|------------------------------------------------------------------0---------------------------|

 


 


 [++++++++++++++++++++++++++++++++++++++++++++++++++++++++++++++++++++++++++++++++++]  


 Guitar 2:


 "Trials in life, questions of us existing here, don't wanna die alone without"


 

 
 e|--------------------------------------------------------|
 B|--------------------------------------------------------|
 G|-7--7-7/10---10--/12---12----/5--5\3---3---3/5---5---5/-|
 D|-7--7-7/10---10--/12---12----/5--5\3---3---3/5---5---5/-|
 A|-5--5-5/8----8---/10---10----/3--3\1---1---1/3---3---3/-|
 D|--------------------------------------------------------|

 


 


 [++++++++++++++++++++++++++++++++++++++++++++++++++++++++++++++++++++++++++++++++++]  


 Guitar 2:


 "you here, please tell me what we have is real."


 

 
 e|-----------------------------------|
 B|-----------------------------------|
 G|-\3---------3h/5--5----5----5/---7-|
 D|-\3---------3h/5--5----5----5/---7-|
 A|-\1---------1h/3--3----3----3/---5-|
 D|-----------------------------------|

 


 


 [++++++++++++++++++++++++++++++++++++++++++++++++++++++++++++++++++++++++++++++++++]  


 Guitar 2: Beginning of 2nd solo:


 

 
 e|----------------------------------------------------------------------------------|
 B|----------------------------------------------------------------------------------|
 G|----------------------------------------------------------------------------------|
 D|----------------------------------------------------------------------------------|
 A|-5-5-5-5-5-5-5-------5-5-5-5--5-5-5---------7-7-7-7-7-7-7-------8-8-8-8-8-8-8-----|
 D|-5-5-5-5-5-5-5--5-5--3-3-3-3--3-3-3----3-3--7-7-7-7-7-7-7--7-7--8-8-8-8-8-8-8-8-8-|

 


 ................................................................................


 


 [++++++++++++++++++++++++++++++++++++++++++++++++++++++++++++++++++++++++++++++++++]  


 Guitar 2:


 

 
 e|----------------------------------------------------------------------------------|
 B|----------------------------------------------------------------------------------|
 G|----------------------------------------------------------------------------------|
 D|----------------------------------------------------------------------------------|
 A|-5-5-5-5-5-5-5-------5-5-5-5--5-5-5---------7-7-7-7-7-7-7-------8-8-8-8-8-8-8-----|
 D|-5-5-5-5-5-5-5--5-5--3-3-3-3--3-3-3----3-3--7-7-7-7-7-7-7--7-7--8-8-8-8-8-8-8-8-8-|

 


 ................................................................................


 


 [++++++++++++++++++++++++++++++++++++++++++++++++++++++++++++++++++++++++++++++++++]  


 Guitar 2: The other guitar in the backround is just doing some random harmonics and feedback.


 

 
 e|----------------------------------------------------------------------------------|
 B|----------------------------------------------------------------------------------|
 G|----------------------------------------------------------------------------------|
 D|----------------------------------------------------------------------------------|
 A|-5-5-5-5-5-5-5-------5-5-5-5--5-5-5---------7-7-7-7-7-7-7-------8-8-8-8-8-8-8-----|
 D|-5-5-5-5-5-5-5--5-5--3-3-3-3--3-3-3----3-3--7-7-7-7-7-7-7--7-7--8-8-8-8-8-8-8-8-8-|

 


 ................................................................................


 


 [++++++++++++++++++++++++++++++++++++++++++++++++++++++++++++++++++++++++++++++++++]Only the solo guitar:


 "Silence, you lost me, no chance for one more day.


 


 [+++++++++++++++++++++++++++++++++++++++++++++++++++++++++++++++++++++++++++++++++]  


 Guitar 2:


 

 
 e|-----------------------------------------------------------------------|
 B|-----------------------------------------------------------------------|
 G|-----------------------------------------------------------------------|
 D|-------------------------------------------------------8-8-8-8-8-8-8-0-|
 A|-5-5-5-5-5-5-5-----5-5-5-5-5-5-5-----7-7-7-7-7-7-7-----8-8-8-8-8-8-8-0-|
 D|-5-5-5-5-5-5-5-5-5-3-3-3-3-3-3-3-3-3-7-7-7-7-7-7-7-7-7-8-8-8-8-8-8-8-0-|

 


 .....................................................


 


 [++++++++++++++++++++++++++++++++++++++++++++++++++++++++++++++++++++++++++++++++]  


 Guitar 2:


 "I stand here a lone:


 

 
 e|------------------------------------------------------------|
 B|------------------------------------------------------------|
 G|------------------------------------------------------------|
 D|-5-5-5-5-5--5\3-3-3-3-3---3/7-7-7-7-7---7---8-8-8-8-8----8\-|
 A|-5-5-5-5-5--5\5-5-5-5-5---5/7-7-7-7-7---7---8-8-8-8-8----8\-|
 D|-5-5-5-5-5--5\3-3-3-3-3---3/7-7-7-7-7---7---8-8-8-8-8----8\-|

 


 


 Guitar 3:


 

 
 e|--------------------------------------------------------------------------------------|
 B|--------------------------------------------------------------------------------------|
 G|-15-15-15-15-15-15-15---14-14-14-14-14-14-14-14--14-14-14-14-14-14-14---7-7-7-7-7-7-7-|
 D|--x--x--x--x--x--x--x----x--x--x--x--x--x--x--x---x--x--x--x--x--x--x---x-x-x-x-x-x-x-|
 A|-13-13-13-13-13-13-13---12-12-12-12-12-12-12-12--12-12-12-12-12-12-12---5-5-5-5-5-5-5-|
 D|--------------------------------------------------------------------------------------|

 


 


 [++++++++++++++++++++++++++++++++++++++++++++++++++++++++++++++++++++++++++++++++]  


 Guitar 2:


 "Falling a way from you, no chance to get back home."


 

 
 e|------------------------------------------------------------|
 B|------------------------------------------------------------|
 G|------------------------------------------------------------|
 D|-5-5-5-5-5--5\3-3-3-3-3---3/7-7-7-7-7---7---8-8-8-8-8----8\-|
 A|-5-5-5-5-5--5\5-5-5-5-5---5/7-7-7-7-7---7---8-8-8-8-8----8\-|
 D|-5-5-5-5-5--5\3-3-3-3-3---3/7-7-7-7-7---7---8-8-8-8-8----8\-|

 


 


 Guitar 3:


 

 
 e|--------------------------------------------------------------------------------------------|
 B|--------------------------------------------------------------------------------------------|
 G|-15-15-15-15-15-15-15--14-14-14-14-14-14-14-14--14-14-14-14-14-14-14\-7h/9--9h/10-10/14--14-|
 D|--x--x--x--x--x--x--x---x--x--x--x--x--x--x--x---x--x--x--x--x--x--x--x--x--x--x--x---x---x-|
 A|-13-13-13-13-13-13-13--12-12-12-12-12-12-12-12--12-12-12-12-12-12-12\-5h/7--7h/8--8/-12--12-|
 D|--------------------------------------------------------------------------------------------|

 


 


 [++++++++++++++++++++++++++++++++++++++++++++++++++++++++++++++++++++++++++++++++]  


 Guitar 2:


 "I stand here alone. Falling away from you"


 

 
 e|------------------------------------------------------------|
 B|------------------------------------------------------------|
 G|------------------------------------------------------------|
 D|-5-5-5-5-5--5\3-3-3-3-3---3/7-7-7-7-7---7---8-8-8-8-8----8\-|
 A|-5-5-5-5-5--5\5-5-5-5-5---5/7-7-7-7-7---7---8-8-8-8-8----8\-|
 D|-5-5-5-5-5--5\3-3-3-3-3---3/7-7-7-7-7---7---8-8-8-8-8----8\-|

 


 


 then:


 

 
 e|--------------------------|
 B|--------------------------|
 G|--------------------------|
 D|-5-5-5-5-5--5\3-3-3-3-3---|
 A|-5-5-5-5-5--5\5-5-5-5-5---|
 D|-5-5-5-5-5--5\3-3-3-3-3---|

 


 


 Guitar 3:


 

 
 e|--------------------------------------------------------------------------------------|
 B|--------------------------------------------------------------------------------------|
 G|-15-15-15-15-15-15-15---14-14-14-14-14-14-14-14--14-14-14-14-14-14-14---7-7-7-7-7-7-7-|
 D|--x--x--x--x--x--x--x----x--x--x--x--x--x--x--x---x--x--x--x--x--x--x---x-x-x-x-x-x-x-|
 A|-13-13-13-13-13-13-13---12-12-12-12-12-12-12-12--12-12-12-12-12-12-12---5-5-5-5-5-5-5-|
 D|--------------------------------------------------------------------------------------|

 


 


 then:


 

 
 e|------------------------------------------------|
 B|------------------------------------------------|
 G|-15-15-15-15-15-15-15---14-14-14-14-14-14-14-14-|
 D|--x--x--x--x--x--x--x----x--x--x--x--x--x--x--x-|
 A|-13-13-13-13-13-13-13---12-12-12-12-12-12-12-12-|
 D|------------------------------------------------|

 


 


 [+++++++++++++++++++++++++++++++++++++++++++++++++++++++++++++++++++++++++++++++]  


 Guitar 2:


 "chance to get back home."


 

 
 e|------------------------------|
 B|------------------------------|
 G|------------------------------|
 D|-/7---7---7---7---7-----7---8~|
 A|-/7---7---7---7---7-----7---8~|
 D|-/7---7---7---7---7-----7---8~|

 


 


 Guitar 3:


 

 
 e|---------------------------------|
 B|---------------------------------|
 G|-14--14--14--14--14--14--14\--3~-|
 D|--x---x---x---x---x---x---x\--x--|
 A|-12--12--12--12--12--12--12\--1~-|
 D|---------------------------------|

 


 


 [+++++++++++++++++++++++++++++++++++++++++++++++++++++++++++++++++++++++++++++++]  


 Guitar 2:


 

 
 e|--------------------------------------------------|
 B|--------------------------------------------------|
 G|--------------------------------------------------|
 D|-8----10----12----15----8----10----12----15---8~~~|
 A|-x-----x-----x-----x----x-----x-----x-----x---x---|
 D|-8----10----12----15----8----10----12----15---8~~~|


Important: The song above is NOT stored on the Chordie server. The original song is hosted at www.guitartabs.cc. Chordie works as a search engine and provides on-the-fly formatting. Chordie does not index songs against artists'/composers' will. To remove this song please click here.

This song is displayed as text-only. Transposing and tuning is only available for chordpro-songs.
Rate #3 of 18 versions

Jango Player

Login - add to songbook

SHARE PAGE  



You need to log in to post comments