Guitar Tabs, Chords and Lyrics
Major upgrade!! After one year development the new version of Chordie is now online! Please give feedback.


Sidewinder   Avenged Sevenfold

 
 G|-------------------------------------------------------------------|
 D|o-----------------------------------------------------------------o|
 A|o-----------------------------------------------------------------o|x4
 D|--0-------0-0-0-------0-0-0-0---------0-0-0-0-----0---0---0-0------|

 


 1 e + a 2 e + a 3 e + a 4 e + a 1 e + a 2 e + a 3 e + a 4 e + a


 


 Verse 0:36


 

 
 G|-----------------------------------------------------------------|
 D|-------------------------5-3-3---------------------------8-7-----|
 A|-------------------------------1-----------------------------1-0/|
 D|-0-0-0-0-0-0-0-0-0-0-0-0---------0-0-0-0-0-0-0-0-0-0-0-0---------|

 


 [1] [+] [2] [+] [3] [+] [4] [+] [1] [+] [2] [+] [3] [+] [4] [+] [1] [+] [2] [+] [3] [+] [4] [+] [1] [+] [2] [+] [3] [+] [4] [+] 


 

 
 G|-----------------------------------------------------------------|
 D|-------------------------5-3-3---------------------------8-7-----|
 A|/5-5-5-5-5-5-5-5-5-5-5-5-------1-5-5-5-5-5-5-5-5-5-5-5-5-----1-0-|
 D|-----------------------------------------------------------------|

 


 [1] [+] [2] [+] [3] [+] [4] [+] [1] [+] [2] [+] [3] [+] [4] [+] [1] [+] [2] [+] [3] [+] [4] [+] [1] [+] [2] [+] [3] [+] [4] [+] 


 Pre Chorus 0:52


 

 
 G|-3-------3---------------------2-3-----------------------7--9h10--|
 D|-------------2-3-2-------5---3-----3---3-3-----------0-2----------|
 A|---3---3---3-------1-3-----5---------1-----3-----1-3--------------|
 D|---------------------------------------------3--------------------|

 


 [1] [+] [2] [+] [3] [+] [4] [+] [1] [+] [2] [+] [3] [+] [4] [+] [1] [+] [2] [+] [3] [+] [4] [+] [1] [+] [2] [+] [3] [+] [4] [+] 


 Chorus 1:00


 

 
 G|-----------------------------------------------------------------|
 D|-----------------------------------------------------------------|
 A|-----------------------------3---1-----5---3---1-------------3-3-|
 D|-0---------------3-------2-----------------------3-3-3-3-2-2-----|

 


 [1] [+] [2] [+] [3] [+] [4] [+] [1] [+] [2] [+] [3] [+] [4] [+] [1] [+] [2] [+] [3] [+] [4] [+] [1] [+] [2] [+] [3] [+] [4] [+] 


 

 
 G|-----------------------------------------------------------------|
 D|-----------------------------------------------------------------|
 A|-----------------------------3-3-1-----5---3---1-----------------|
 D|-0---------------3-3-3-3-2-2---------------------3-3-3-3-2-2-2-2-|

 


 [1] [+] [2] [+] [3] [+] [4] [+] [1] [+] [2] [+] [3] [+] [4] [+] [1] [+] [2] [+] [3] [+] [4] [+] [1] [+] [2] [+] [3] [+] [4] [+] 


 Interlude 1:15


 

 
 G|-------------------------------------------------------------------|
 D|o-----------------------------------------------------------------o|
 A|o-----------------------------------------------------------------o|x4
 D|--0-------0-0-0-------0-0-0-0---------0-0-0-0-----0---0---0-0------|

 


 1 e + a 2 e + a 3 e + a 4 e + a 1 e + a 2 e + a 3 e + a 4 e + a


 


 

 
 G|-----------------------------------------------------------------|
 D|-------------3---------------------------------------------------|
 A|-5-----3-----------0-----1---0-----------------------------------|
 D|-----------------------------------------------------------------|

 


 [1] [+] [2] [+] [3] [+] [4] [+] [1] [+] [2] [+] [3] [+] [4] [+] [1] [+] [2] [+] [3] [+] [4] [+] [1] [+] [2] [+] [3] [+] [4] [+] 


 Verse 1:35


 

 
 G|-----------------------------------------------------------------|
 D|-------------------------5-3-3---------------------------8-7-----|
 A|-------------------------------1-----------------------------1-0/|
 D|-0-0-0-0-0-0-0-0-0-0-0-0---------0-0-0-0-0-0-0-0-0-0-0-0---------|

 


 [1] [+] [2] [+] [3] [+] [4] [+] [1] [+] [2] [+] [3] [+] [4] [+] [1] [+] [2] [+] [3] [+] [4] [+] [1] [+] [2] [+] [3] [+] [4] [+] 


 

 
 G|-----------------------------------------------------------------|
 D|-------------------------5-3-3---------------------------8-7-----|
 A|/5-5-5-5-5-5-5-5-5-5-5-5-------1-5-5-5-5-5-5-5-5-5-5-5-5-----1-0-|
 D|-----------------------------------------------------------------|

 


 [1] [+] [2] [+] [3] [+] [4] [+] [1] [+] [2] [+] [3] [+] [4] [+] [1] [+] [2] [+] [3] [+] [4] [+] [1] [+] [2] [+] [3] [+] [4] [+] 


 Pre Chorus 1:50


 

 
 G|-3-------3---------------------2-3-----------------------7--9h10--|
 D|-------------2-3-2-------5---3-----3---3-3-----------0-2----------|
 A|---3---3---3-------1-3-----5---------1-----3-----1-3--------------|
 D|---------------------------------------------3--------------------|

 


 [1] [+] [2] [+] [3] [+] [4] [+] [1] [+] [2] [+] [3] [+] [4] [+] [1] [+] [2] [+] [3] [+] [4] [+] [1] [+] [2] [+] [3] [+] [4] [+] 


 Chorus 1:58


 

 
 G|-----------------------------------------------------------------|
 D|-----------------------------------------------------------------|
 A|-----------------------------3---1-----5---3---1-------------3-3-|
 D|-0---------------3-------2-----------------------3-3-3-3-2-2-----|

 


 [1] [+] [2] [+] [3] [+] [4] [+] [1] [+] [2] [+] [3] [+] [4] [+] [1] [+] [2] [+] [3] [+] [4] [+] [1] [+] [2] [+] [3] [+] [4] [+] 


 

 
 G|-----------------------------------------------------------------|
 D|-----------------------------------------------------------------|
 A|-----------------------------3-3-1-----5---3---1-----------------|
 D|-0---------------3-3-3-3-2-2---------------------3-3-3-3-2-2-2-2-|

 


 [1] [+] [2] [+] [3] [+] [4] [+] [1] [+] [2] [+] [3] [+] [4] [+] [1] [+] [2] [+] [3] [+] [4] [+] [1] [+] [2] [+] [3] [+] [4] [+] 


 Bridge 2:14


 

 
 G|-------------------------------------------------------------------|
 D|o-----------------------------------------------------------------o|
 A|o---------------------------------4-4-4-4-4-4-4-4-----------------o|
 D|--3-3-3-3-3-3-3-3-6-6-6-6-5-5-5-5-----------------6-6-6-6-5-5-5-5--|

 


 [1] [+] [2] [+] [3] [+] [4] [+] [1] [+] [2] [+] [3] [+] [4] [+] [1] [+] [2] [+] [3] [+] [4] [+] [1] [+] [2] [+] [3] [+] [4] [+] 


 2:29


 

 
 G|-----------------------------------------------------------------|
 D|---------------------------/-9-----------------------------------|
 A|-6-------------\-2---------------8-------------------------------|
 D|---------------------------------------------0--01---------------|

 


 [1] [+] [2] [+] [3] [+] [4] [+] [1] [+] [2] [+] [3] [+] [4] [+] [1] [+] [2] [+] [3] [+] [4] [+] [1] [+] [2] [+] [3] [+] [4] [+] 


 

 
 G|-----------------------------------------------------------------|
 D|---------------------------/-9-----------------------------------|
 A|-6-----------6-\-2---------------8-----------8-\-----------------|
 D|-------------------------------------------------1---------------|

 


 [1] [+] [2] [+] [3] [+] [4] [+] [1] [+] [2] [+] [3] [+] [4] [+] [1] [+] [2] [+] [3] [+] [4] [+] [1] [+] [2] [+] [3] [+] [4] [+] 


 2:45


 

 
 G|-----------------------------------------------------------------|
 D|-----------------------------------------------------------------|
 A|----------------------------/5---1111111---------1111111----/6---|
 D|-0000000---------0000000-----------------------------------------|

 


 [1] [+] [2] [+] [3] [+] [4] [+] [1] [+] [2] [+] [3] [+] [4] [+] [1] [+] [2] [+] [3] [+] [4] [+] [1] [+] [2] [+] [3] [+] [4] [+] 


 

 
 G|-------------------------------------------------|
 D|-------------------------------------------------|
 A|-3333333---------3333333----/7---5555555---------|
 D|-------------------------------------------0-0-0-|

 


 [1] [+] [2] [+] [3] [+] [4] [+] [1] [+] [2] [+] [3] [+] [4] [+] [1] [+] [2] [+] [3] [+] [4] [+] 


 2:59


 

 
 G|-----------------------------------------------------------------|
 D|-----------------------------------------------------------------|
 a|-5-5-5-5-5-5-5-5-5-5-5-5-5-5-5-5-7-7-7-7-7-7-7-7-7-7-7-7-7-7-7-7-|
 D|-----------------------------------------------------------------|

 


 1 e + a 2 e + a 3 e + a 4 e + a 1 e + a 2 e + a 3 e + a 4 e + a


 


 

 
 G|-------------------------------------------------------------------------------------------------|
 D|---------------------------------------------6-6-6-6-6-6-----------------------------------------|
 A|-8-8-8-8-8-8-8-8-8-8-8-8-8-8-8-8-8-8-8-8-8-8-------------8-8-8-8-4-4-4-4-4-4-4-4-4-4-4-4-4-4-4-4-|
 D|-------------------------------------------------------------------------------------------------|

 


 1 e + a 2 e + a 3 e + a 4 e + a 1 e + a 2 e + a 3 e + a 4 e + a 1 e + a 2 e + a 3 e + a 4 e + a


 


 3:08


 

 
 G|-----------------------------------------------------------------|
 D|-----------------------------------------------------------------|
 A|-1-----------3-4-----------------4-4-4-4-4---6-7-2-2-2-2-2-2-2-2-|
 D|-----------------6-------8-\-10\---------------------------------|

 


 [1] [+] [2] [+] [3] [+] [4] [+] [1] [+] [2] [+] [3] [+] [4] [+] [1] [+] [2] [+] [3] [+] [4] [+] [1] [+] [2] [+] [3] [+] [4] [+] 


 

 
 G|-----------------------------------------------------------------|
 D|-----------------------------------------------------------------|
 A|-6--6--6-6--4--------------------6--6--6-6--4--------------------|
 D|---------------4-6--6--6-6--6--6---------------4-6-------6-6-6-6-|

 


 [1] [+] [2] [+] [3] [+] [4] [+] [1] [+] [2] [+] [3] [+] [4] [+] [1] [+] [2] [+] [3] [+] [4] [+] [1] [+] [2] [+] [3] [+] [4] [+] 


 

 
 G|---------------------------------|
 D|---------------------------------|
 A|---------------------------------|
 D|-7-7-7-7-6-6-6-6-4-4-4-4-2-2-2-2-|

 


 [1] [+] [2] [+] [3] [+] [4] [+] [1] [+] [2] [+] [3] [+] [4] [+]  


 Solo 3:28


 

 
 G|-----------------------------------------------------------------|
 D|-----------------------------------------------------------------|
 A|-----------------------------------------------------------------|
 D|-0-r-------------0-r-------------4-r-------------4---------444444|

 


 [1] [+] [2] [+] [3] [+] [4] [+] [1] [+] [2] [+] [3] [+] [4] [+] [1] [+] [2] [+] [3] [+] [4] [+] [1] [+] [2] [+] [3] [+] [4] [+] 


 

 
 G|-----------------------------------------------------------------|
 D|-----------------------------------------------------------------|
 A|-----------------------------------------------------------------|

 


 D|-0000000000000000000000000000000044444444444444444444444444444444|


 [1] [+] [2] [+] [3] [+] [4] [+] [1] [+] [2] [+] [3] [+] [4] [+] [1] [+] [2] [+] [3] [+] [4] [+] [1] [+] [2] [+] [3] [+] [4] [+] 


 

 
 G|-------------------------------------------------|
 D|-------------------------------------------------|
 A|-5-------4-------5-------0---0-------------------|
 D|-------------------7-8-5---3--5320---0-----------|

 


 [1] [+] [2] [+] [3] [+] [4] [+] [1] [+] [2] [+] [3] [+] [4] [+] [1] [+] [2] [+] [3] [+] [4] [+] 


 

 
 G|---------------------------------------------------------------------------------|
 D|---------------------------------------------------------------------------------|
 A|---------------------------------------------------------------------------------|
 D|-------------------------------------------------------/-12-12-12-12-12-12-12-12-|

 


 1 + 2 + 3 + 4 + 1 + 2 + 3 + 4 + 1 + 2 + 3 + 4 + 1 + 2 + 3 e + a 4 e + a


 


 Chorus 3:57


 

 
 G|-----------------------------------------------------------------|
 D|-----------------------------------------------------------------|
 A|-----------------------------3-3-1-1-1-5---3-2-1-------------3---|
 D|-0-0-0-0---0-0-0-3-3-3-3-2-2---------------------3-3-3-3-2-2---2-|

 


 [1] [+] [2] [+] [3] [+] [4] [+] [1] [+] [2] [+] [3] [+] [4] [+] [1] [+] [2] [+] [3] [+] [4] [+] [1] [+] [2] [+] [3] [+] [4] [+] 


 

 
 G|-----------------------------------------------------------------|
 D|-----------------------------------------------------------------|
 A|-----------------------------3---1-1-1-5---3-2-1-----------------|
 D|-0-0-0-0---0-0-2-3---3---2-----------------------3-3-3-3-2-2-2-2-|

 


 [1] [+] [2] [+] [3] [+] [4] [+] [1] [+] [2] [+] [3] [+] [4] [+] [1] [+] [2] [+] [3] [+] [4] [+] [1] [+] [2] [+] [3] [+] [4] [+] 


 4:12


 

 
 G|-------------------------------------------------------------------|
 D|o-----------------------------------------------------------------o|
 A|o---------------------------------4-4-4-4-4-4-4-4-----------------o|
 D|--3-3-3-3-3-3-3-3-6-6-6-6-5-5-5-5-----------------6-6-6-6-5-5-5-5--|

 


 [1] [+] [2] [+] [3] [+] [4] [+] [1] [+] [2] [+] [3] [+] [4] [+] [1] [+] [2] [+] [3] [+] [4] [+] [1] [+] [2] [+] [3] [+] [4] [+] 


 4:28


 

 
 G|-----------------------------------------------------------------|
 D|---------------------------/-9-----------------------------------|
 A|-6-------------\-2---------------8-------------------------------|
 D|---------------------------------------------0--01---------------|

 


 [1] [+] [2] [+] [3] [+] [4] [+] [1] [+] [2] [+] [3] [+] [4] [+] [1] [+] [2] [+] [3] [+] [4] [+] [1] [+] [2] [+] [3] [+] [4] [+] 


 

 
 G|-----------------------------------------------------------------|
 D|---------------------------/-9-----------------------------------|
 A|-6-----------6-\-2---------------8-----------8-\-----------------|
 D|-------------------------------------------------1---------------|

 


 [1] [+] [2] [+] [3] [+] [4] [+] [1] [+] [2] [+] [3] [+] [4] [+] [1] [+] [2] [+] [3] [+] [4] [+] [1] [+] [2] [+] [3] [+] [4] [+] 


 Interlude


 

 
 G|-------------------------------------------------------------------|
 D|o-----------------------------------------------------------------o|
 A|o-----------------------------------------------------------------o|
 D|--0----------------------------------------------------------------|

 


 [1] [+] [2] [+] [3] [+] [4] [+] [1] [+] [2] [+] [3] [+] [4] [+] [1] [+] [2] [+] [3] [+] [4] [+] [1] [+] [2] [+] [3] [+] [4] [+] 


 Outro 4:59


 

 
 G|-----------------------------------------------------------------|
 D|-0-0---0-2---3---------------------------------------------------|
 A|-----------------3-3-r-3-------5-1-1-r-1-------1-1-1-r-1-3---3---|
 D|-----------------------------------------------------------------|

 


 [1] [+] [2] [+] [3] [+] [4] [+] [1] [+] [2] [+] [3] [+] [4] [+] [1] [+] [2] [+] [3] [+] [4] [+] [1] [+] [2] [+] [3] [+] [4] [+] 


 

 
 G|-----------------------------------------------------------------|
 D|-0--2--3-2---0---------------------------------------------------|
 A|-----------------3-3-r-3-3---3---1-1-r-1-1-----1-1-1-r-1-3---3---|
 D|-----------------------------------------------------------------|

 


 [1] [+] [2] [+] [3] [+] [4] [+] [1] [+] [2] [+] [3] [+] [4] [+] [1] [+] [2] [+] [3] [+] [4] [+] [1] [+] [2] [+] [3] [+] [4] [+] 


 

 
 G|-----------------------------------------------------------------|
 D|-0-0---0-2---3---------------------------------------------------|
 A|-----------------3-3-r-3-3---3-3-1-1-r-1-1---1-1-1---0-------3---|
 D|-------------------------------------------------------5-3-------|

 


 [1] [+] [2] [+] [3] [+] [4] [+] [1] [+] [2] [+] [3] [+] [4] [+] [1] [+] [2] [+] [3] [+] [4] [+] [1] [+] [2] [+] [3] [+] [4] [+] 


 

 
 G|-----------------------------------------------------------------|
 D|-0-0---0-2---2-3-------------------------------------------------|
 A|-----------------3-3-r-3-3---3-3-1-1---1-1-----1-1---1---3---3---|
 D|-----------------------------------------------------------------|

 


 [1] [+] [2] [+] [3] [+] [4] [+] [1] [+] [2] [+] [3] [+] [4] [+] [1] [+] [2] [+] [3] [+] [4] [+] [1] [+] [2] [+] [3] [+] [4] [+] 


 5:31


 

 
 G|-----------------------------------------------------------------|
 D|-0-0---0-2---3-----------2---3-----------------------------------|
 A|-----------------3-3-r-3---------1-1-r-1-1-1-r-1-1-1-r-1-3---3---|
 D|-----------------------------------------------------------------|

 


 [1] [+] [2] [+] [3] [+] [4] [+] [1] [+] [2] [+] [3] [+] [4] [+] [1] [+] [2] [+] [3] [+] [4] [+] [1] [+] [2] [+] [3] [+] [4] [+] 


 

 
 G|-----------------------------------------------------------------|
 D|-0-0---0-2---3-2---------------------------------------------2-2-|
 A|-----------------3-3-r-3-3-3-r-3-1-1---1---1---1-1---1---3-------|
 D|-----------------------------------------------------------------|

 


 [1] [+] [2] [+] [3] [+] [4] [+] [1] [+] [2] [+] [3] [+] [4] [+] [1] [+] [2] [+] [3] [+] [4] [+] [1] [+] [2] [+] [3] [+] [4] [+] 


 

 
 G|-----------------------------------------------------------------|
 D|-0-0---0-2---3-2-------------2-3-----------------3---2-----------|
 A|-----------------3-3-r-3-3-------1-1---1-1---1-----------3---1---|
 D|-----------------------------------------------------------------|

 


 [1] [+] [2] [+] [3] [+] [4] [+] [1] [+] [2] [+] [3] [+] [4] [+] [1] [+] [2] [+] [3] [+] [4] [+] [1] [+] [2] [+] [3] [+] [4] [+] 


 

 
 G|---------------------------------------------------------5---5---|
 D|-0-0---0-2---3---------------------------------------------------|
 A|-----------------3-3-r-3-3-3-r-3-1-1-r-1-1-1-r-1-1---3-----------|
 D|-----------------------------------------------------------------|

 


 [1] [+] [2] [+] [3] [+] [4] [+] [1] [+] [2] [+] [3] [+] [4] [+] [1] [+] [2] [+] [3] [+] [4] [+] [1] [+] [2] [+] [3] [+] [4] [+] 


 6:01


 

 
 G|-----------------------------------------------------------------|
 D|-0-0---0-2---3-----------2---3-----------------------------------|
 A|-----------------3-3-r-3---------1-1-r-1-1-1-r-1-1-1-r-1-3---3---|
 D|-----------------------------------------------------------------|

 


 [1] [+] [2] [+] [3] [+] [4] [+] [1] [+] [2] [+] [3] [+] [4] [+] [1] [+] [2] [+] [3] [+] [4] [+] [1] [+] [2] [+] [3] [+] [4] [+] 


 

 
 G|-----------------------------------------------------------------|
 D|-0-0---0-2---3---------------------------------------------------|
 A|-----------------3-3-r-3-3-3-r-3-1-1-r-1-1---1---1---1---3---3---|
 D|-----------------------------------------------------------------|

 


 [1] [+] [2] [+] [3] [+] [4] [+] [1] [+] [2] [+] [3] [+] [4] [+] [1] [+] [2] [+] [3] [+] [4] [+] [1] [+] [2] [+] [3] [+] [4] [+] 


 6:18


 

 
 G|------------------7---7-9-10---9-10-12--------------------------------|
 D|-0---0-------8-10--------------------------10-------------------------|
 A|--------------------------------------------------3-------3-5-3-5-3-5-|
 D|----------------------------------------------------------------------|

 


 1 e + a 2 e + a 3 e + a 4 e + a 1 e + a 2 e + a 3 e + a 4 e + a


 


 

 
 G|-----------------------------------------------------------------|
 D|-----------------------------------------------------------------|
 A|-1---1---r---1---1---1---r---1---1-------1-------3-------3-------|
 D|-----------------------------------------------------------------|

 


 1 e + a 2 e + a 3 e + a 4 e + a 1 e + a 2 e + a 3 e + a 4 e + a


 


 6:25


 

 
 G|-----------------------------------------------------------------|
 D|-------------------------------------------------------------2-3-|
 A|-5-5-r-5-5-5-r-5-3-3-r-3-3-3-r-5-1-1-r-1-1-1-r-1-1--3--5---5-----|
 D|-----------------------------------------------------------------|

 


 [1] [+] [2] [+] [3] [+] [4] [+] [1] [+] [2] [+] [3] [+] [4] [+] [1] [+] [2] [+] [3] [+] [4] [+] [1] [+] [2] [+] [3] [+] [4] [+] 


 

 
 G|-----------------------------------------------------------------|
 D|-------7---------------------------------3-------3-----3-----0-2-|
 A|-5-5-r---5-7-8-7-3-3-r-3-3-3-3-5-1-1-r-1------------1----1-3-----|
 D|-----------------------------------------------------------------|

 


 [1] [+] [2] [+] [3] [+] [4] [+] [1] [+] [2] [+] [3] [+] [4] [+] [1] [+] [2] [+] [3] [+] [4] [+] [1] [+] [2] [+] [3] [+] [4] [+] 


 

 
 G|-----------------------------------------------------------------|
 D|-------------------------------------------------3---------------|
 A|-5-5-r-5-5-5-5-5-3-3-r-3-3-3-3-3-1-1-r-1-1-1-r-1----1--3-3---1---|
 D|-----------------------------------------------------------------|

 


 [1] [+] [2] [+] [3] [+] [4] [+] [1] [+] [2] [+] [3] [+] [4] [+] [1] [+] [2] [+] [3] [+] [4] [+] [1] [+] [2] [+] [3] [+] [4] [+] 


 

 
 G|-----------------------------------------------------------------|
 D|---------------32------------------------------------------------|
 A|-5-5-r-5-5-5-5---3-3-r-3-3-3-3-5-1-1-r-1-1-1-1-1-1--0------------|
 D|-------------------------------------------------------5-3---2---|


Important: The song above is NOT stored on the Chordie server. The original song is hosted at www.guitartabs.cc. Chordie works as a search engine and provides on-the-fly formatting. Chordie does not index songs against artists'/composers' will. To remove this song please click here.

This song is displayed as text-only. Transposing and tuning is only available for chordpro-songs.
Rate #1 of 8 versions

Jango Player

Login - add to songbook

SHARE PAGE  




You need to log in to post comments