Guitar Tabs, Chords and Lyrics
Major upgrade!! After one year development the new version of Chordie is now online! Please give feedback.


Streets   Avenged Sevenfold

 
 G|-----------------------------------------------------------------|
 D|---------------------------------2h3-3-3-3-3-3-3-3---3---3---3-2-|
 A|-0---0-0-0---0-0-0-0-0-0-0-0-0-0---------------------------------|
 D|-----------------------------------------------------------------|

 


 [1] [+] [2] [+] [3] [+] [4] [+] [1] [+] [2] [+] [3] [+] [4] [+] [1] [+] [2] [+] [3] [+] [4] [+] [1] [+] [2] [+] [3] [+] [4] [+] 


 

 
 G|-----------------------------------------------------------------|
 D|---------------------------------0h2-2---2---2---2---2---2---2---|
 A|-3---3-3-3---3-3-3-3-3-3-3-3-3-3---------------------------------|
 D|-----------------------------------------------------------------|

 


 [1] [+] [2] [+] [3] [+] [4] [+] [1] [+] [2] [+] [3] [+] [4] [+] [1] [+] [2] [+] [3] [+] [4] [+] [1] [+] [2] [+] [3] [+] [4] [+] 


 0:07


 

 
 G|-----------------------------------------------------------------|
 D|---------------------------------2h3-3---3---3---3---3---3---3-2-|
 A|-0---0---0---0-0-0---0-0-0-0-0-----------------------------------|
 D|-----------------------------------------------------------------|

 


 [1] [+] [2] [+] [3] [+] [4] [+] [1] [+] [2] [+] [3] [+] [4] [+] [1] [+] [2] [+] [3] [+] [4] [+] [1] [+] [2] [+] [3] [+] [4] [+] 


 

 
 G|-----------------------------------------------------------------|
 D|---------------------------------2---2---2---2---2---2---2---2---|
 A|-3---3-3-3-3-3---3---3---3---3-----------------------------------|
 D|-----------------------------------------------------------------|

 


 [1] [+] [2] [+] [3] [+] [4] [+] [1] [+] [2] [+] [3] [+] [4] [+] [1] [+] [2] [+] [3] [+] [4] [+] [1] [+] [2] [+] [3] [+] [4] [+] 


 0:14


 

 
 G|-----------------------------------------------------------------|
 D|---------------------------------3---3---3---3-3-3---3---3---3-2-|
 A|-0---0---0---0-0-0---0---0---0-0---------------------------------|
 D|-----------------------------------------------------------------|

 


 [1] [+] [2] [+] [3] [+] [4] [+] [1] [+] [2] [+] [3] [+] [4] [+] [1] [+] [2] [+] [3] [+] [4] [+] [1] [+] [2] [+] [3] [+] [4] [+] 


 

 
 G|-----------------------------------------------------------------|
 D|---------------------------------2---2---2---2-2-2---2---2-------|
 A|-3---3---3---3-3-3---3---3---3-3-----------------------------3---|
 D|-----------------------------------------------------------------|

 


 [1] [+] [2] [+] [3] [+] [4] [+] [1] [+] [2] [+] [3] [+] [4] [+] [1] [+] [2] [+] [3] [+] [4] [+] [1] [+] [2] [+] [3] [+] [4] [+] 


 

 
 G|-----------------------------------------------------------------|
 D|---------------------------------3---3---3---3-3-3---3---3---3-2-|
 A|-0---0---0---0-0-0---0---0---0-0---------------------------------|
 D|-----------------------------------------------------------------|

 


 [1] [+] [2] [+] [3] [+] [4] [+] [1] [+] [2] [+] [3] [+] [4] [+] [1] [+] [2] [+] [3] [+] [4] [+] [1] [+] [2] [+] [3] [+] [4] [+] 


 

 
 G|-----------------------------------------------------------------|
 D|---------------------------------2---2---2---2---2---2---2---2---|
 A|-3---3---3---3-3-3---3---3---3-3---------------------------------|
 D|-----------------------------------------------------------------|

 


 [1] [+] [2] [+] [3] [+] [4] [+] [1] [+] [2] [+] [3] [+] [4] [+] [1] [+] [2] [+] [3] [+] [4] [+] [1] [+] [2] [+] [3] [+] [4] [+] 


 

 
 G|-----------------------------------------------------------------|
 D|-----------------------------------------------------------------|
 A|-0---------------------------------------------------------------|
 D|-----------------------------------------------------------------|

 


 [1] [+] [2] [+] [3] [+] [4] [+] [1] [+] [2] [+] [3] [+] [4] [+] [1] [+] [2] [+] [3] [+] [4] [+] [1] [+] [2] [+] [3] [+] [4] [+] 


 0:31


 

 
 G|-----------------------------------------------------------------|
 D|-----------------3-3---3-3--3--3-----------------2-2---2-2-------|
 A|-0-----0-0--0--0-----------------3-3---3-3--3--3-------------3-2-|
 D|-----------------------------------------------------------------|

 


 1 + 2 + Triplet 1 + 2 + Triplet 1 + 2 + Triplet 1 + 2 + 3 + 4 +


 


 

 
 G|-----------------------------------------------------------------|
 D|-----------------3-3---3-3--3--3-----------------2---2---2---2---|
 A|-0-0---0-0--0--0-----------------3-3---3-3--3--3-----------------|
 D|-----------------------------------------------------------------|

 


 1 + 2 + Triplet 1 + 2 + Triplet 1 + 2 + Triplet 1 + 2 + 3 + 4 +


 


 0:41


 

 
 G|-----------------------------------------------------------------|
 D|-----------------3-3---3-3--3--5-----------------2-2---2-2-------|
 A|-0-0---0-0--0--0-----------------3-3---3-3--3--3-------------3-2-|
 D|-----------------------------------------------------------------|

 


 1 + 2 + Triplet 1 + 2 + Triplet 1 + 2 + Triplet 1 + 2 + 3 + 4 +


 


 

 
 G|-----------------------------------------------------------------|
 D|-----------------3-3---3-3--3--3-----------------2-2-2-2-2-2-2-2-|
 A|-0-0---0-0--0--0-----------------3-3---3-3--3--3-----------------|
 D|-----------------------------------------------------------------|

 


 1 + 2 + Triplet 1 + 2 + Triplet 1 + 2 + Triplet 1 + 2 + 3 + 4 +


 


 0:52


 

 
 G|-----------------------------------------------------------------|
 D|-3-3---3-3--3--2---------------2-0-0---0-0--0--0-----------------|
 A|-----------------3-3---3-3--3--------------------0-0---0-0--0--0-|
 D|-----------------------------------------------------------------|

 


 1 + 2 + Triplet 1 + 2 + Triplet 1 + 2 + Triplet 1 + 2 + Triplet


 


 

 
 G|-----------------------------------------------------------------|
 D|-3-3---3-3--3--2-----------------2-2-2-2-2-2-2-2-2---------------|
 A|-----------------3-3---3-3--3--3---------------------------------|
 D|-----------------------------------------------------------------|

 


 1 + 2 + Triplet 1 + 2 + Triplet 1 + 2 + 3 + 4 + 1 + 2 + 3 + 4 +


 


 1:01


 

 
 G|-----------------------------------------------------------------|
 D|-3-3---3-3--3--2------------3--2-0-0---0-0--0--0---------------2-|
 A|-----------------3-3---3-3-----------------------0-0---0-0--0----|
 D|-----------------------------------------------------------------|

 


 1 + 2 + Triplet 1 + 2 + Triplet 1 + 2 + Triplet 1 + 2 + Triplet


 


 

 
 G|-----------------------------------------------------------------|
 D|-3-3---3-3--3--2-----------------2-2-2-2-2-2-2-2-2---------------|
 A|-----------------3-3---3-3--3--3---------------------------------|
 D|-----------------------------------------------------------------|

 


 1 + 2 + Triplet 1 + 2 + Triplet 1 + 2 + 3 + 4 + 1 + 2 + 3 + 4 +


 


 1:11


 

 
 G|-----------------------------------------------------------------|
 D|-----------------------------------------------------------------|
 A|-0---0-0-0---0-0-0-0-0-0-0h3---3---------------------------------|
 D|---------------------------------3---3-3-3-3-3---5---5-5-5-5-5---|

 


 [1] [+] [2] [+] [3] [+] [4] [+] [1] [+] [2] [+] [3] [+] [4] [+] [1] [+] [2] [+] [3] [+] [4] [+] [1] [+] [2] [+] [3] [+] [4] [+] 


 

 
 G|-----------------------------------------------------------------|
 D|-----------------------------------------------------------------|
 A|-0---0-0-0-0-0-0-0-0-0-0-0h3---3---------------------------------|
 D|---------------------------------3---3-3-3-3-3-3-5---5-5-5-5-5-5-|

 


 [1] [+] [2] [+] [3] [+] [4] [+] [1] [+] [2] [+] [3] [+] [4] [+] [1] [+] [2] [+] [3] [+] [4] [+] [1] [+] [2] [+] [3] [+] [4] [+] 


 1:20


 

 
 G|-----------------------------------------------------------------|
 D|-----------------------------------------------------------------|
 A|-0---0-0-0-0-0-0-0-0-0-0-0h3---3---------------------------------|
 D|---------------------------------3---3-3-3-3-3-3-5---5-5-5-5-5-5-|

 


 ( T[1]ab[+] f[2]ro[+]m:[3] h[+]tt[4]p:[+]//[1]ww[+]w.[2]gu[+]it[3]ar[+]ta[4]bs[+].c[1]c/[+]ta[2]bs[+]/a[3]/a[+]ve[4]ng[+]ed[1]_s[+]ev[2]en[+]fo[3]ld[+]/s[4]tr[+]eets_btab_ver_4.html )


 

 
 G|-----------------------------------------------------------------|
 D|-----------------------------------------------------------------|
 A|-0---0-0-0-0-0-0-0-0-0-0-0h3---3---------------------------------|
 D|---------------------------------3---3-3-3-3-3---5---5---5-5-5-5-|

 


 [1] [+] [2] [+] [3] [+] [4] [+] [1] [+] [2] [+] [3] [+] [4] [+] [1] [+] [2] [+] [3] [+] [4] [+] [1] [+] [2] [+] [3] [+] [4] [+] 


 1:30


 

 
 G|-----------------------------------------------------------------|
 D|-----------------------------------------------------------------|
 A|-0---0---0-0-0-------------------3---3---3-3-3-------------------|
 D|---------------3---3-3-3-3---3-----------------5---5-5---5---5---|

 


 [1] [+] [2] [+] [3] [+] [4] [+] [1] [+] [2] [+] [3] [+] [4] [+] [1] [+] [2] [+] [3] [+] [4] [+] [1] [+] [2] [+] [3] [+] [4] [+] 


 

 
 G|-----------------------------------------------------------------|
 D|-----------------------------------------------------------------|
 A|-0---0---0---0-------------------3---3---3---3--/7---7---7---7---|
 D|-----------------3---3---3---3-----------------------------------|

 


 [1] [+] [2] [+] [3] [+] [4] [+] [1] [+] [2] [+] [3] [+] [4] [+] [1] [+] [2] [+] [3] [+] [4] [+] [1] [+] [2] [+] [3] [+] [4] [+] 


 1:39


 

 
 G|-----------------------------------------------------------------|
 D|-----------------3-3---3-3--3--3-----------------2-2---2-2--2--3-|
 A|-0-0---0-0--0--0-----------------3-3---3-3--3--3-----------------|
 D|-----------------------------------------------------------------|

 


 1 + 2 + Triplet 1 + 2 + Triplet 1 + 2 + Triplet 1 + 2 + Triplet


 


 

 
 G|-----------------------------------------------------------------|
 D|-----------------3-3---3-3--3--2-----------------2---2---2---2---|
 A|-0-0---0-0--0--0-----------------3-3---3-3--3--3-----------------|
 D|-----------------------------------------------------------------|

 


 1 + 2 + Triplet 1 + 2 + Triplet 1 + 2 + Triplet 1 + 2 + 3 + 4 +


 


 1:49


 

 
 G|-----------------------------------------------------------------|
 D|---------------2-3-3---3-3--3--3-----------------2-2---2-2-0-----|
 A|-0-0---0-0--0--------------------3-3---3-3--3--3-------------3-2-|
 D|-----------------------------------------------------------------|

 


 1 + 2 + Triplet 1 + 2 + Triplet 1 + 2 + Triplet 1 + 2 + 3 + 4 +


 


 

 
 G|-----------------------------------------------------------------|
 D|-----------------3-3---3-3--3--2-----------------2---2---2---2---|
 A|-0-0---0-0--0--0-----------------3-3---3-3-3-3-3-----------------|
 D|-----------------------------------------------------------------|

 


 1 + 2 + Triplet 1 + 2 + Triplet 1 + 2 + 3 + 4 + 1 + 2 + 3 + 4 +


 


 1:58


 

 
 G|-----------------------------------------------------------------|
 D|-3-3---3-3--3--2-------------2-2-0-0---0-0-2-3-2-----------------|
 A|-----------------3-3---3-3-----------------------0-0---0-0--0--0-|
 D|-----------------------------------------------------------------|

 


 1 + 2 + Triplet 1 + 2 + 3 + 4 + 1 + 2 + 3 + 4 + 1 + 2 + Triplet


 


 

 
 G|-----------------------------------------------------------------|
 D|-3-3---3-3--3--2-----------------2-2-2-2-2-2-2-2-2---------------|
 A|-----------------3-3---3-3--3--3---------------------------------|
 D|-----------------------------------------------------------------|

 


 1 + 2 + Triplet 1 + 2 + Triplet 1 + 2 + 3 + 4 + 1 + 2 + 3 + 4 +


 


 2:08


 

 
 G|-----------------------------------------------------------------|
 D|-3-3---3-3--3--2---------------2-0-0---0-0--2--3------------0--2-|
 A|-----------------3-3---3-3--3--------------------0-0---0-0-------|
 D|-----------------------------------------------------------------|

 


 1 + 2 + Triplet 1 + 2 + Triplet 1 + 2 + Triplet 1 + 2 + Triplet


 


 

 
 G|-----------------------------------------------------------------|
 D|-3-3---3-3--3--2-----------------2-2-2-2-2-2-2-2-2---------------|
 A|-----------------3-3---3-3--3--3---------------------------------|
 D|-----------------------------------------------------------------|

 


 1 + 2 + Triplet 1 + 2 + Triplet 1 + 2 + 3 + 4 + 1 + 2 + 3 + 4 +


 


 2:17


 

 
 G|-----------------------------------------------------------------|
 D|-----------------------------------------------------------------|
 A|-0---------------------------------------------------------------|
 D|-----------------------------------------------------------------|

 


 [1] [+] [2] [+] [3] [+] [4] [+] [1] [+] [2] [+] [3] [+] [4] [+] [1] [+] [2] [+] [3] [+] [4] [+] [1] [+] [2] [+] [3] [+] [4] [+] 


 

 
 G|-----------------------------------------------------------------|
 D|-----------------------------------------------------------------|
 A|-0---------------------------------------------------------------|
 D|---------------------------------3-3-3-3-3-3-3-3-5-5-5-5-5-5-5-5-|

 


 [1] [+] [2] [+] [3] [+] [4] [+] [1] [+] [2] [+] [3] [+] [4] [+] [1] [+] [2] [+] [3] [+] [4] [+] [1] [+] [2] [+] [3] [+] [4] [+] 


 2:27


 

 
 G|-----------------------------------------------------------------|
 D|-----------------------------------------------------------------|
 A|-0---0-0-0---0-0-0---0-0-0h3---3---------------------------------|
 D|---------------------------------3---3-3-3-3-3-3-5---5-5-5-5-5-5-|

 


 [1] [+] [2] [+] [3] [+] [4] [+] [1] [+] [2] [+] [3] [+] [4] [+] [1] [+] [2] [+] [3] [+] [4] [+] [1] [+] [2] [+] [3] [+] [4] [+] 


 

 
 G|-----------------------------------------------------------------|
 D|-----------------------------------------------------------------|
 A|-0---0-0-0-0-0-0-0-0-0-0-0h3---3---------------------------------|
 D|---------------------------------3---3-3-3-3-3-3-5---5-5-5-5-5-5-|

 


 [1] [+] [2] [+] [3] [+] [4] [+] [1] [+] [2] [+] [3] [+] [4] [+] [1] [+] [2] [+] [3] [+] [4] [+] [1] [+] [2] [+] [3] [+] [4] [+] 


 2:36


 

 
 G|-----------------------------------------------------------------|
 D|-----------------------------------------------------------------|
 A|-0---0-0-0-0-0-0-0-0-0-0-0h3-------------------------------------|
 D|---------------------------------3---3-3-3-3-3-/-5---5-5-5-5-5-/-|

 


 [1] [+] [2] [+] [3] [+] [4] [+] [1] [+] [2] [+] [3] [+] [4] [+] [1] [+] [2] [+] [3] [+] [4] [+] [1] [+] [2] [+] [3] [+] [4] [+] 


 

 
 G|-----------------------------------------------------------------|
 D|-----------------------------------------------------------------|
 A|-----0-0-0-0-0-0-0-0-0-0-0h3-------------------------------------|
 D|-7-------------------------------3---3-3-3-3-3-/-5---5-5-5-5-5-/-|

 


 [1] [+] [2] [+] [3] [+] [4] [+] [1] [+] [2] [+] [3] [+] [4] [+] [1] [+] [2] [+] [3] [+] [4] [+] [1] [+] [2] [+] [3] [+] [4] [+] 


 

 
 G|-----------------------------------------------------------------|
 D|-----------------------------------------------------------------|
 A|-----0-0-0-0-0-0-0-0-0-0-0h3-------------------------------------|
 D|-7-------------------------------3---3-3-3-3-3-/-5---5-5-5-5-5-/-|

 


 [1] [+] [2] [+] [3] [+] [4] [+] [1] [+] [2] [+] [3] [+] [4] [+] [1] [+] [2] [+] [3] [+] [4] [+] [1] [+] [2] [+] [3] [+] [4] [+] 


 

 
 G|-----------------------------------------------------------------|
 D|-----------------------------------------------------------------|
 A|-----0-0-0-0-0-0-0-0-0-0-0h3---3---------------------------------|
 D|-7-------------------------------3---3-3-3-3-3-/-5---5-5-5-5-5-/-|

 


 [1] [+] [2] [+] [3] [+] [4] [+] [1] [+] [2] [+] [3] [+] [4] [+] [1] [+] [2] [+] [3] [+] [4] [+] [1] [+] [2] [+] [3] [+] [4] [+] 


 

 
 G|-----------------------------------------------------------------|
 D|-----------------------------------------------------------------|
 A|-0---------------------------------------------------------------|
 D|-----------------------------------------------------------------|


Important: The song above is NOT stored on the Chordie server. The original song is hosted at www.guitartabs.cc. Chordie works as a search engine and provides on-the-fly formatting. Chordie does not index songs against artists'/composers' will. To remove this song please click here.

This song is displayed as text-only. Transposing and tuning is only available for chordpro-songs.
Rate #1 of 3 versions

Jango Player

Login - add to songbook

SHARE PAGE  



You need to log in to post comments