Guitar Tabs, Chords and Lyrics
Server problems seems to be fixed. Chordie has been experiencing problems with songs disappearing. These issues now seems to be fixed, but still verifying the fix. If you find anything strange, please email admin@chordie.com.


Na, Na, Hey, Hey, Kiss Him Goodbye  Axxis

Axxis - Na Na, Hey Hey, Kiss Him Goodbye
Tabs by MartyTox
Cover no youtube - http://www.youtube.com/watch?v=Dkv-wXw4kus
Intro
E E Q H E E Q H Q Q H E E W
 
 E||----------------------|----------------------|-----------------------|-------------------------|
 B||----------------------|----------------------|-----------------------|-------------------------|
 G||-----3--5----5--------|--5--7--8----8--------|--12----10----7--------|--8--7--5----------------|
 D||--5-------------------|----------------------|-----------------------|-------------------------|
 A||----------------------|----------------------|-----------------------|-------------------------|
 E||----------------------|----------------------|-----------------------|-------------------------|

|
|
> 2 times
E E Q H E E Q H Q Q H E E W |
 
 ----------------------|----------------------|-----------------------|-------------------------|
 ----------------------|----------------------|-----------------------|-------------------------|
 -----3--5----5--------|--5--7--8----8--------|--12----10----7--------|--8--7--5----------------|
 --5-------------------|----------------------|-----------------------|-------------------------|
 ----------------------|----------------------|-----------------------|-------------------------|
 ----------------------|----------------------|-----------------------|-------------------------|

Riff #1
[E] [E] [E] [E] [E] [E] [E] [E] [E] [E] [E] [E] [E] [E] [E] [E]  
 
 --------------------------|----------------------------|
 --------------------------|----------------------------|
 --5--x--5-----5--x--5-----|--10--x--10-----12--x--12---|
 --5--x--5-----5--x--5-----|--10--x--10-----12--x--12---| 2 Times
 --3--x--3-----3--x--3-----|---8--x--8------10--x--10---|
 --------------------------|----------------------------|

[E] [E] [E] [E] [E] [E] [E] [E] [E] [E] [E] [E] [E] [E] [E] [E] [E] [E] [E] [E] [E] [E] [E] [E]  
 
 --------------------------|--------------------------|--------------------------|
 --------------------------|--------------------------|--------------------------|
 --5--x--5-----5--x--5-----|--------------------------|--7--x--7-----7--x--7-----|
 --5--x--5-----5--x--5-----|--7--x--7-----7--x--7-----|--7--x--7-----7--x--7-----|
 --3--x--3-----3--x--3-----|--7--x--7-----7--x--7-----|--5--x--5-----5--x--5-----|
 --------------------------|--5--x--5-----5--x--5-----|--------------------------|

[E] [E] [E] [E] [E] [E] [E] [E] [E] [E] [E] [E] [E] [E] [E] [E] [E] [E] [E] [E] [E] [E] [E] [E]  
 
 --------------------------|--------------------------|--------------------------|
 --------------------------|--------------------------|--------------------------|
 --9--x--9-----9--x--9-----|--5--x--5-----5--x--5-----|--7--x--7-----7--x--7-----|
 --9--x--9-----9--x--9-----|--5--x--5-----5--x--5-----|--7--x--7-----7--x--7-----|
 --7--x--7-----7--x--7-----|--3--x--3-----3--x--3-----|--5--x--5-----5--x--5-----|
 --------------------------|--------------------------|--------------------------|

[E] [E] [E] [E] [E] [E] [E] [E]  
 
 --------------------------|
 --------------------------|
 --------------------------|
 --7--x--7-----7--x--7-----|
 --7--x--7-----7--x--7-----|
 --5--x--5-----5--x--5-----|

[E] [E] [E] [E] [E] [E] [E] [E] [E] [E] [E] [E] [E] [E] [E] [E] [E] [E] [E] [E] [E] [E] [E] [E]  
 
 --------------------------|--------------------------|--------------------------|
 --------------------------|--------------------------|--------------------------|
 --7--x--7-----7--x--7-----|--5--x--5-----5--x--5-----|--7--x--7-----7--x--7-----|
 --7--x--7-----7--x--7-----|--5--x--5-----5--x--5-----|--7--x--7-----7--x--7-----|
 --5--x--5-----5--x--5-----|--3--x--3-----3--x--3-----|--5--x--5-----5--x--5-----|
 --------------------------|--------------------------|--------------------------|

[E] [E] [E] [E] [E] [E] [E] [E]  
 
 ------------------------------|
 ------------------------------|
 --10--x--10-----10--x--10-----|
 --10--x--10-----10--x--10-----|
 ---8--x---8------8--x---8-----|
 ------------------------------|

Ref.: 2 Times
[E] [E] [E] [E] [E] [E] [E] [E] [E] [E] [E] [E] [E] [E] [E] [E]  
 
 --------------------------|--------------------------|
 --------------------------|--------------------------|
 --5--5--5--5--5--5--5--5--|--8--8--8--8--8--8--8--8--|
 --5--5--5--5--5--5--5--5--|--8--8--8--8--8--8--8--8--|
 --3--3--3--3--3--3--3--3--|--6--6--6--6--6--6--6--6--|
 --------------------------|--------------------------|

[E] [E] [E] [E] [E] [E] [E] [E] [E] [E] [E] [E] [E] [E] [E] [E] [E] [E] [E] [E] [E] [E] [E] [E]  
 
 --------------------------|----------------------------------|--------------------------|
 --------------------------|----------------------------------|--------------------------|
 --------------------------|----------------------------------|--5--5--5--5--5--5--5--5--|
 --8--8--8--8--8--8--8--8--|--10--10--10--10--10--10--10--10--|--5--5--5--5--5--5--5--5--|
 --8--8--8--8--8--8--8--8--|--10--10--10--10--10--10--10--10--|--3--3--3--3--3--3--3--3--|
 --6--6--6--6--6--6--6--6--|---8---8---8---8---8---8---8---8--|--------------------------|

[E] [E] [E] [E] [E] [E] [E] [E] [E] [E] [E] [E] [E] [E] [E] [E] [E] [E] [E] [E] [E] [E] [E] [E]  
 
 --------------------------|--------------------------|----------------------------------|
 --------------------------|--------------------------|----------------------------------|
 --8--8--8--8--8--8--8--8--|--------------------------|----------------------------------|
 --8--8--8--8--8--8--8--8--|--8--8--8--8--8--8--8--8--|--10--10--10--10--10--10--10--10--|
 --6--6--6--6--6--6--6--6--|--8--8--8--8--8--8--8--8--|--10--10--10--10--10--10--10--10--|
 --------------------------|--6--6--6--6--6--6--6--6--|---8---8---8---8---8---8---8---8--|

after Ref. is Riff #1
after Riff #1 is again Ref.
After Ref. again but PM(palm muted)
and solo.
and again Ref.

Important: The song above is NOT stored on the Chordie server. The original song is hosted at www.guitartabs.cc. Chordie works as a search engine and provides on-the-fly formatting. Chordie does not index songs against artists'/composers' will. To remove this song please click here.

Text color:
Chord color:
Chord grids: 
Font size:    
Page size: 

E
Rate #0 of 1 versions

Login - add to songbook

SHARE PAGE  



You need to log in to post comments