Guitar Tabs, Chords and Lyrics
Server problems seems to be fixed. Chordie has been experiencing problems with songs disappearing. These issues now seems to be fixed, but still verifying the fix. If you find anything strange, please email admin@chordie.com.


Alright in the Air  The Baby Universal

 
 -------------------------------------------------------------------------------

ALRIGHT IN THE AIR - Baby Universal
 
 -------------------------------------------------------------------------------

Vers
[A5] [Bm7] [Dm] [Am/C]  
 
 e|----------------|----------------|--------------------|----------------|
 B|----------------|----------------|--------------------|----------------|
 G|--9-9-9-9-9-----|--7-7-7-7-7-7-7-|--10-10-10-10-10----|--9-9-9-9-9-9-9-|
 D|--7-7-7-7-7-----|--7-7-7-7-7-7-7-|--7--7--7--7--7-----|--7-7-7-7-7-7-7-|
 A|--0-0-0-0-0-----|----------------|--------------------|----------------|
 E|----------------|--7-7-7-7-7-7-7-|--10-10-10-10-10----|--8-8-8-8-8-8-8-|

[A5] [Bm7] [Dm7] [Am/C]  
 
 e|----------------|----------------|--------------------|----------------||
 B|----------------|----------------|--------------------|----------------||
 G|--9-9-9-9-9-----|--7-7-7-7-7-7-7-|--------------------|----------------||
 D|--7-7-7-7-7-----|--7-7-7-7-7-7-7-|--10-10-10-10-10----|--7-7-7-7-7-----||
 A|--0-0-0-0-0-----|----------------|--------------------|----------------||
 E|----------------|--7-7-7-7-7-7-7-|--10-10-10-10-10----|--8-8-8-8-8-----||

Refrain
[Em] [D] [Am]  
 
 e|-----------------|------------------------|-----------------------|
 B|8---8-8-8-8-8-10-|10-10-10-10-10-10-10-10-|13---13-13-13-13-13-12-|
 G|0---0-0-0-0-0-0--|0--0--0--0--0--0--0--0--|-----------------------|
 D|-----------------|------------------------|10---10-10-10-10-10-10-|
 A|7---7-7-7-7-7-9--|9--9--9--9--9--9--9--9--|0----0--0--0--0--0-----|
 E|0---0-0-0-0-0----|10-10-10-10-10-10-10-10-|-----------------------|

[Cmaj7] [Em] [D]  
 
 e|------------------------|-----------------|------------------------|
 B|12-12-12-12-12-12-12-12-|8---8-8-8-8-8-10-|10-10-10-10-10-10-10-10-|
 G|------------------------|0---0-0-0-0-0-0--|0--0--0--0--0--0--0--0--|
 D|10-10-10-10-10-10-10-10-|-----------------|------------------------|
 A|------------------------|7---7-7-7-7-7-9--|9--9--9--9--9--9--9--9--|
 E|12-12-12-12-12-12-12-12-|0---0-0-0-0-0----|10-10-10-10-10-10-10-10-|

*1 Am7 c5- *2 Am7 C9
 
 e|----------------|----------------| |----------------|----------------||
 B|5---5-5-5-5-5-7-|7-7-7-7-7-7-7-7-| |5---5-5-5-5-5-3-|3-3-3-3-3-3-3-3-||
 G|0---0-0-0-0-0-0-|0-0-0-0-0-0-0-0-|repeat,|10--0-0-0-0-0-0-|0-0-0-0-0-0-0-0-||
 D|5---5-5-5-5-5---|----------------|then...|5---5-5-5-5-5---|----------------||
 A|0---0-0-0-0-0---|7-7-7-7-7-7-7-7-| |0---0-0-0-0-0---|3-3-3-3-3-3-3-3-||
 E|----------------|----------------| |----------------|----------------||

Outro Chorus Gtr2
[Em] [D] [Am]  
 
 e|-------------|-----------------|-----------------|------------------|
 B|-------------|-----------------|-----------------|------------------|
 G|--------9-12-|--14--------9-12-|--14--------9-12-|--14--------12-16-|
 D|-------------|-----------------|-----------------|------------------|
 A|--------7-10-|--12--------7-10-|--12--------7-10-|--12--------10-14-|
 E|-------------|-----------------|-----------------|------------------|

[Cmaj7] [Em] [D] [Am7]  
 
 e|----------------|-----------------|----------------|----------------|
 B|----------------|-----------------|----------------|----------------|
 G|--14-------9-12-|--14--------9-12-|--11--------7-9-|----7-9-----7-9-|
 D|----------------|-----------------|----------------|----------------|
 A|--12-------7-10-|--12--------7-10-|---9--------5-7-|----5-7-----5-7-|
 E|----------------|-----------------|----------------|----------------|

c5- Em D Am
 
 e|-----------------|-----------------|-----------------|------------------|
 B|-----------------|-----------------|-----------------|------------------|
 G|------------9-12-|--14--------9-12-|--14--------9-12-|--14--------12-15-|
 D|-----------------|-----------------|-----------------|------------------|
 A|------------7-10-|--12--------7-10-|--12--------7-10-|--12--------10-13-|
 E|-----------------|-----------------|-----------------|------------------|

[Cmaj7] [Em] [D] [Am7] [C9]  
 
 e|-----------------|-----------------|----------------|----------------|----||
 B|-----------------|-----------------|----------------|----------------|----||
 G|--14-------12-16-|--14--------9-12-|--11--------7-9-|----7-9-----7-9-|9---||
 D|-----------------|-----------------|----------------|----------------|----||
 A|--12-------10-14-|--12--------7-10-|---9--------5-7-|----5-7-----5-7-|7---||
 E|-----------------|-----------------|----------------|----------------|----||

Lyrics
____________________________________
hey thunder girl don`t you cry
it`s just a gap in the stars tonight
hey thunder boy don`t you weep
it`s just a walk in the killing fields
blood in the streets from the heart
come on in when we fall apart
we are just jiving around
and we are never coming down
it`s alright alright alright don`t care
it`s alright alright alright in the air
it`s alright alright alright don`t care
it`s alright alright alright oh yeah
hey thunder girl don`t you cry
it`s just a gap in the stars tonight
hey thunder boy don`t you weep
it`s just a walk in the killing fields
out on the station lights
if it`s strange now that`s alright
we`re just little wiped out again
watch out or we will be crashing
it`s alright alright alright don`t care
it`s alright alright alright in the air
it`s alright alright alright enough
just a gap in the stars that we slide across
alright in the air
alright in the air
alright in the air
alright in the air
[+++]  
[++]  
[+] 

Important: The song above is NOT stored on the Chordie server. The original song is hosted at www.guitartabs.cc. Chordie works as a search engine and provides on-the-fly formatting. Chordie does not index songs against artists'/composers' will. To remove this song please click here.

Text color:
Chord color:
Chord grids: 
Font size:    
Page size: 

A5 Am Am/C Am7 Bm7 C9 Cmaj7 D Dm Dm7 Em
Rate #1 of 3 versions

Login - add to songbook

SHARE PAGE  




You need to log in to post comments