Guitar Tabs, Chords and Lyrics
Update 25:10. 13:00. Site is back up running again. Songbooks are recovered. Woring on getting search back up..


Back From the Dead   Babyshambles

 
 [-----------------------|----------------|-------------------|-----------]
 [-----------------------|----------------|-------------------|-----------]
 [------4----2---4--4--2-|-2----0---------|----4---2--4--4--2-|-2--0------]
 [-----------------------|----------4---0-|-------------------|------4--0-]
 [---2-------------------|----------------|-2-----------------|-----------]
 [-----------------------|----------------|-------------------|-----------]
 [-------------------|--------------|---------------------|---------------]
 [-------------------|--------------|---------------------|---------------]
 [----4---2--4--4--2-|-2----0-------|----4---2---4--4---2-|---------------]
 [-------------------|---------4--0-|---------------------|---------------]
 [-2-----------------|--------------|-2-------------------|---------------]
 [-------------------|--------------|---------------------|---------------]
 sr[-----2-2-2-2-|----2-2-2-2-2-2-2-|-2---2-2--2---2-2-|-2--2---2--2--2--2--]
 te[-----3-2-3-2-|----2-3-2-2-3-3-3-|-2---3-3--2---3-2-|-2--3---5--5--3--2--]
 ap[--4--4-4-4-4-|----4-4-4-4-4-4-4-|-2---2-2--2---2-2-|-2--2---2--2--2--2--]
 re[-------------|------------------|-4---4-4--4---4-4-|-4--4---4--4--4--4--]
 ta[-------------|------------------|------------------|--------------------]
 t[-------------|------------------|------------------|--------------------]
 [-----3--3----|-2--2------------2--|-2----------2--|-------------------|er
 [--5--5--5--5-|-5--5---5-5-5-5--5--|-5---5--5---5--|-2--2--2--2--2--2--|ne
 [--4--4--4--4-|-4--4---4-4-4-4--4--|-4---4--4---4--|-2--2--2--2--2--2--|dp
 [-------------|--------------------|---------------|-4--4--4--4--4--4--| e
 [-------------|--------------------|---------------|-------------------| a
 [-------------|--------------------|---------------|-------------------| t
 [--2--2--2--2--2-|-2--2-2--2-2--2--2--2-|-2--2--2--2--2-|-2-2-2-2-2-2-2-2]
 [--2--3--2--3--2-|-2--3-3--2-2--2--3--3-|-2--3--2--3--2-|-2-2-3-3-2-2-3-3]
 [--4--4--4--4--4-|-4--4-4--4-4--4--4--4-|-4--4--4--4--4-|-4-4-4-4-4-4-4-4]
 [----------------|----------------------|---------------|----------------]
 [----------------|----------------------|---------------|----------------]
 [----------------|----------------------|---------------|----------------]
 [--2--2--2--2--2-|-2--2-2--2-2--2--2--2-|-2--2--2--2--2-|-2-2-2-2-2-2-2-2]
 [--2--3--2--3--2-|-2--3-3--2-2--2--3--3-|-2--3--2--3--2-|-2-2-3-3-2-2-3-3]
 [--4--4--4--4--4-|-4--4-4--4-4--4--4--4-|-4--4--4--4--4-|-4-4-4-4-4-4-4-4]
 [----------------|----------------------|---------------|----------------]
 [----------------|----------------------|---------------|----------------]
 [----------------|----------------------|---------------|----------------]
 sr[--2---2---2----2|2---2---2---2---2---2-|---------------|----------------]
 te[--3---3---3----3|3---3---3---3---3---3-|-2---2---2----2|-2-2-2-2--2--2--]
 ap[--4---4---4----4|4---4---4---4---4---4-|-2---2---2----2|-2-2-2-2--2--2--]
 re[--4---4---4----4|4---4---4---4---4---4-|-4---4---4----4|-4-4-4-4--4--4--]
 ta[--2---2---2----2|2---2---2---2---2---2-|-4---4---4----4|-4-4-4-4--4--4--]
 t[----------------|----------------------|-2---2---2.---2|-2-2-2-2--2--2--]
 [-----------------|-------------------|-------------------|---------------|er
 [-----------------|-------------------|-------------------|--2--2--2--2---|ne
 [-----------------|-------------------|-------------------|--2--2--2--2---|dp
 [--5----5--5----5-|-5--5--5--5--5--5--|-2--2-----2---2--2-|--4--4--4--4---| e
 [--5----5--5----5-|-5--5--5--5--5--5--|-2--2-----2---2--2-|--4--4--4--4---| a
 [--3----3--3----3-|-3--3--3--3--3--3--|-0--0-----0---0--0-|--2--2--2--2---| t
 [------------------|--------------|--------------------|-----------------]
 [------------------|--------------|--------------------|-----------------]
 [-----4---2--4-4--2|2---0---------|----4---2---4--4--2-|2----0-----------]
 [------------------|--------4--0--|--------------------|---------4---0---]
 [--2---------------|--------------|-2------------------|-----------------]
 [------------------|--------------|--------------------|-----------------]
 [-----------------|---------------|-----------------|--------------------]
 [-----------------|---------------|-----------------|--------------------]
 [-----------------|---------------|-----------------|--------------------]
 [------4-4--------|---------------|-----------------|--------------------]
 [-----------4-----|------2--2-----|-----------------|-0--0-0-0-0--1------]
 [--2-----------2--|--3----------3-|--0--0-0-0-0--0--|--------------------]

 


 


 music slows right down at this point? so play freely


 


 

 
 [-----------2-|-2-----------|-2-----------|-2------------|-2----------2-2]
 [--5--3--2--3-|-3---5--3--2-|-2---5--3--2-|-3----5--3--2-|-2--5--3--2-2-3]
 [-----------4-|-4-----------|-2-----------|-4------------|-2----------2-2]
 [-------------|-------------|-------------|-5------------|---------------]
 [-------------|-------------|-------------|--------------|---------------]
 [-------------|-------------|-------------|--------------|---------------]
 [-2-2-2-2--2--------]
 [-2-3-2-3--2--------]
 [-4-4-4-4--4--------] the end enjoy!!!
 [-------------------]
 [-------------------]
 [-------------------]


Important: The song above is NOT stored on the Chordie server. The original song is hosted at www.guitartabs.cc. Chordie works as a search engine and provides on-the-fly formatting. Chordie does not index songs against artists'/composers' will. To remove this song please click here.

This song is displayed as text-only. Transposing and tuning is only available for chordpro-songs.
Rate #0 of 9 versions

Login - add to songbook

SHARE PAGE  




You need to log in to post comments