Guitar Tabs, Chords and Lyrics
Major upgrade!! After one year development the new version of Chordie is now online! Please give feedback.


A Streetkid Named Desire  Bad Religion

Tabbed out by Christopher L. Exner ( cexner@pclink.com )
INTRO SLIDE
 
 D|---------
 A|---8\\---
 E|---------

INTRO RHYTHM
[F] [C] [G] [A#] [C] [F] [C] [G] [A#]  
 
 E|--------------------------- -----------------------------
 B|--------------------------- -----------------------------
 G|--------------------------- -----------------------------
 D|-------5-5-5-------3-3-3/5- x3 -------5-5-5-------3-3-33333-
 A|-3-3-3-3-3-3-5-5-5-1-1-1/3- -3-3-3-3-3-3-5-5-5-1-1-11111-
 E|-1-1-1-------3-3-3--------- -1-1-1-------3-3-3-----------

INTRO SOLO
 
 e|-----------------------------1------------3-3--5-6-6/--
 B|------------1--3-3--5-6~-5~----1----5-----3-3--5-6-6/--
 G|------0-2-3----------------------2----5----------------
 D|--333-----------------------------------5--------------
 A|-------------------------------------------------------
 E|-------------------------------------------------------

INTRO SOLO (cont)
 
 e|-1-1-1--3-5-6-------------------1----------------------
 B|-1-1-1---------8-8--10-11~-10~----1----5------6666-6-/-
 G|------------------------------------2----5----7777-7-/-
 D|-------------------------------------------5--8888-8-/-
 A|----------------------------------------------8888-8-/-
 E|-------------------------------------------------------

VERSE
[C] [F] [C] [G] [C] [F] [C] [F]  
 
 e|------------ ----------------------------------------------------------
 B|------------ ----------------------------------------------------------
 G|------5555-- x2 ------777\\---5---5---------------------------------------
 D|-5-5--3333-- -5-5--555\\-5-3-5-3-5555-4444-----------------------------
 A|-3-3-------- -3-3-------3---3---3333-2222-7777-5555-33333333-55555555--
 E|------------ -----------------------------5555-3333-11111111-333333333-

\"be cooool, they might as well...\" \"just a little...\"
[C] [F] [G] [C] [F] [G] [C] [F] [G] [A] [G]  
 
 e|------------------------------------------------------ ---------------3-
 B|------------------------------------------------------ ---------------3-
 G|------5555-77777777------5555-7777----------5555-7777- -2-------------4-
 D|-5555-3333-55555555-5555-3333-5555-55555555-3333-5555- -2-------------5-
 A|-3333---------------3333-----------33333333----------- -0-------------5-
 E|------------------------------------------------------ ---------------3-

CHORUS
[C] [F] [A#] [F] [C] [F] [A#] [C]  
 
 e|-----------------------8---8---8--8--8--8---6--6--8--8--8--8--
 B|-----------------------8---8---10-10-10-10--6--6--8--8--8--8--
 G|-------5555------5555--9---9---10-10-10-10--7--7--7--7--7--7--
 D|--5555-3333-3333-3333--10--10--10-10-10-10--8--8--10-10-10-10-
 A|--3333------1111-------10--10--8--8--8--8---8--8--10-10-10-10-
 E|-----------------------8---8----------------6--6--8--8--8--8--

PLAY THIS OVER 2ND PART OF CHORUS
e|-8888/13131313-6666-8888-
B|-8888/13131313-6666-8888-
 
 G|-------------------------
 D|-------------------------
 A|-------------------------
 E|-------------------------

2ND INTRO SOLO
 
 e|-1----------3-3--5-5H6~5~---1-1-1----------------
 B|--1---5---------------------1-1-1--5-6-5--5/15~~-
 G|---2---5--------------------2-2-2--5-5-5--5/15~~-
 D|--------5--------------------------5-5-5--5/15~~-
 A|-------------------------------------------------
 E|-------------------------------------------------

CHORDS THAT LEAD TO BRIDGE
[D] [G]  
 
 e|-0------------3-------
 B|-1------------3-------
 G|-2------------4-------
 D|-7------------5-------
 A|-5------------5-------
 E|--------------3-------

BASS FOR BRIDGE: C G F G
WHAT GUITAR PLAYS DURING BRIDGE:
 
 e|-------- --3--0----
 B|--0-1--- --------0-
 G|--0--0-- ETC. ----------
 D|-------- ----------
 A|-------- ----------
 E|-------- ----------

CHORDS UNDER LAST SOLO
 
 e|----------------------------------------
 B|----------------------------------------
 G|------5555-77777777-------5555----------
 D|-5555-3333-55555555---5-5-3333----------
 A|-3333-----------------3-3------5-5-5555-
 E|-------------------------------3-3-3333-

LAST SOLO
\"somewhere else...\"
 
 e|-------------------8-8-7-7-8-8-7-7------------------------------------------
 B|--------------------8-8-8-8-8-8-8-8---13\\12-12\\10-10\\8-8/10-10\\8-8/10-8-
 G|----------------------------------------------------------------------------
 D|------------2-4-5---------------------10\\-9-9-\\7--7-\\5-5-/7-7-\\5-5/7--5-
 A|------2-3-5-----------------------------------------------------------------
 E|--3-5-----------------------------------------------------------------------

LAST SOLO (cont)
 
 e|-------------------------------------------------
 B|-------------------------------------------3--5~-
 G|----------------------------555--444--55-4-------
 D|----------5--5-5h7-5h7-7-5--555--555--55-5-------
 A|-3-33-5-7----------------------------------------
 E|-------------------------------------------------


Important: The song above is NOT stored on the Chordie server. The original song is hosted at www.guitartabs.cc. Chordie works as a search engine and provides on-the-fly formatting. Chordie does not index songs against artists'/composers' will. To remove this song please click here.

Text color:
Chord color:
Chord grids: 
Font size:    
Page size: 

A A# C D F G
Rate #2 of 2 versions

Login - add to songbook

SHARE PAGE  




You need to log in to post comments