Guitar Tabs, Chords and Lyrics
Server problems seems to be fixed. Chordie has been experiencing problems with songs disappearing. These issues now seems to be fixed, but still verifying the fix. If you find anything strange, please email admin@chordie.com.


Grains of Wrath  Bad Religion

GRAINS OF WRATH
As recorded by Bad Religion
(From the 2007 Album NEW MAPS OF HELL)
Words and Music by Bad Religion
Arranged by Bad Religion
Transcribed by Spidey255
x 3 [Cm]5 5 4 x x 6 [Eb]8 8 8 x 6 8 [Bb]8 7 x x 3 5 5[G] 4 3 3
F G(type 2)
x 8 10 10 10 x x 10 12 12 12 x
Gtr I (E A D G B E) - 'Untitled'
Gtr II (E A D G B E) - 'Untitled'
Gtr III (E A D G B E) - 'Untitled'
Intro
Q=150
[Cm]  
[4/4] Gtr I
S S E +E E E E E E S S E +E E E E E E
 
 |---------------------|----------------------------|
 |-4-4-4-(4)-4-4-4-4-4-|--4--4-4-(4)-4--4--4----4-4-|
 |-5-5-5-(5)-5-5-5-5-5-|--5--5-5-(5)-5--5--5----5-5-|
 |-5-5-5-(5)-5-5-5-5-5-|--5--5-5-(5)-5--5--5----5-5-|
 |-3-3-3-(3)-3-3-3-3-3-|--3--3-3-(3)-3--3--3----3-3-|
 |---------------------|----------------------------|

|
| Gtr II
| E E +E E H +H E. E. E
 
 |---------------------|----------------------------|
 |---------------------|----------------------------|
 |---------------------|----------------------------|
 |---------------------|----------------------------|
 |-3---3-(3)-5S6-------|-(6)-----------/6----5----3-|
 |---------------------|----------------------------|

[Eb]S S E +E E E E E E S S E +E E E E E E
 
 |----------------------|-------------------------|
 |-8--8-8-(8)-8-8-8-8-8-|--8--8-8-(8)-8-8-8-8-8---|
 |-8--8-8-(8)-8-8-8-8-8-|--8--8-8-(8)-8-8-8-8-8---|
 |-8--8-8-(8)-8-8-8-8-8-|--8--8-8-(8)-8-8-8-8-8---|
 |-6--6-6-(6)-6-6-6-6-6-|--6--6-6-(6)-6-6-6-6-6---|
 |----------------------|-------------------------|

|
| Q. E H +H Q Q
 
 |----------------------|-------------------------|
 |----------------------|-------------------------|
 |----------------------|-------------------------|
 |----------------------|-------------------------|
 |-1----------3---------|---------------6---6-----|
 |--------------3-------|-(3)---------------------|

[Bb]S S E +E E E E E E S S E +E E E E E E
 
 |----------------------|---------------------------|
 |----------------------|---------------------------|
 |-7--7-7-(7)-7-7-7-7-7-|--7--7-7-(7)-7-7--7----7-7-|
 |-8--8-8-(8)-8-8-8-8-8-|--8--8-8-(8)-8-8--8----8-8-|
 |-8--8-8-(8)-8-8-8-8-8-|--8--8-8-(8)-8-8--8----8-8-|
 |-6--6-6-(6)-6-6-6-6-6-|--6--6-6-(6)-6-6--6----6-6-|

|
| Q. E H +H E. E. E
 
 |----------------------|---------------------------|
 |----------------------|---------------------------|
 |----------------------|---------------------------|
 |----------------------|---------------------------|
 |-5----------3---------|-------------------------5-|
 |--------------6-------|-(6)-----------6----8------|

To Coda
[G]S S E +E E E E E E S S E +E E E E E E
 
 |-3--3-3-(3)-3-3-3-3-3-|--3--3-3-(3)-3-3-3-3-3-|
 |-3--3-3-(3)-3-3-3-3-3-|--3--3-3-(3)-3-3-3-3-3-|
 |-4--4-4-(4)-4-4-4-4-4-|--4--4-4-(4)-4-4-4-4-4-|
 |-5--5-5-(5)-5-5-5-5-5-|--5--5-5-(5)-5-5-5-5-5-|
 |-5--5-5-(5)-5-5-5-5-5-|--5--5-5-(5)-5-5-5-5-5-|
 |-3--3-3-(3)-3-3-3-3-3-|--3--3-3-(3)-3-3-3-3-3-|

|
| Q. E H +W
 
 |----------------------|-----------------------|
 |----------------------|-----------------------|
 |----------------------|-----------------------|
 |----------------------|-----------------------|
 |-5----------6-5-------|-(5)-------------------|
 |----------------------|-----------------------|

Verse
[Cm] S S E +E E E E E E S S E +E E E E E E
 
 ||--------------------------------------|-------------------------------------|
 ||o-(4)-(4)-(4)-(4)-(4)-(4)-(4)-(4)-(4)-|-(4)-(4)-(4)-(4)-(4)-(4)-(4)-(4)-(4)-|
 ||---5---5---5--(5)--5---5---5---5---5--|--5---5---5--(5)--5---5---5---5---5--|
 ||---5---5---5--(5)--5---5---5---5---5--|--5---5---5--(5)--5---5---5---5---5--|
 ||o--3---3---3--(3)--3---3---3---3---3--|--3---3---3--(3)--3---3---3---3---3--|
 ||--------------------------------------|-------------------------------------|

[Eb] S S E +E E E E E E S S E +E E E E E E
 
 |-------------------------------------|-------------------------------------|
 |-(8)-(8)-(8)-(8)-(8)-(8)-(8)-(8)-(8)-|-(8)-(8)-(8)-(8)-(8)-(8)-(8)-(8)-(8)-|
 |--8---8---8--(8)--8---8---8---8---8--|--8---8---8--(8)--8---8---8---8---8--|
 |--8---8---8--(8)--8---8---8---8---8--|--8---8---8--(8)--8---8---8---8---8--|
 |--6---6---6--(6)--6---6---6---6---6--|--6---6---6--(6)--6---6---6---6---6--|
 |-------------------------------------|-------------------------------------|

[Bb] S S E +E E E E E E S S E +E E E E E E
 
 |-------------------------------------|-------------------------------------|
 |-------------------------------------|-------------------------------------|
 |-(7)-(7)-(7)-(7)-(7)-(7)-(7)-(7)-(7)-|-(7)-(7)-(7)-(7)-(7)-(7)-(7)-(7)-(7)-|
 |--8---8---8--(8)--8---8---8---8---8--|--8---8---8--(8)--8---8---8---8---8--|
 |--8---8---8--(8)--8---8---8---8---8--|--8---8---8--(8)--8---8---8---8---8--|
 |--6---6---6--(6)--6---6---6---6---6--|--6---6---6--(6)--6---6---6---6---6--|

1.
[G] S S E +E E E E E E S S E +E E E E E E
 
 |-------------------------------------|---------------------------------------||
 |-------------------------------------|--------------------------------------o||
 |-(4)-(4)-(4)-(4)-(4)-(4)-(4)-(4)-(4)-|-(4)-(4)-(4)-(4)-(4)-(4)-(4)-(4)-(4)---||
 |--5---5---5--(5)--5---5---5---5---5--|--5---5---5--(5)--5---5---5---5---5----||
 |--5---5---5--(5)--5---5---5---5---5--|--5---5---5--(5)--5---5---5---5---5---o||
 |--3---3---3--(3)--3---3---3---3---3--|--3---3---3--(3)--3---3---3---3---3----||

2.
$
[F] S S E +E E E E E E [G] S S E +E E E E E E
 
 |----------------------------------------------|----------------------------------------------|
 |-(10)-(10)-(10)-(10)-(10)-(10)-(10)-(10)-(10)-|-(12)-(12)-(12)-(12)-(12)-(12)-(12)-(12)-(12)-|
 |--10---10---10--(10)--10---10---10---10---10--|--12---12---12--(12)--12---12---12---12---12--|
 |--10---10---10--(10)--10---10---10---10---10--|--12---12---12--(12)--12---12---12---12---12--|
 |---8----8----8---(8)---8----8----8----8----8--|--10---10---10--(10)--10---10---10---10---10--|
 |----------------------------------------------|----------------------------------------------|

Chorus
[Cm] [Eb5] [Bb5] 
[E] [E] [+E] [E] [E] [E] [E] [E] [E] [E] [+E] [E] [E] [E] [+E] [E]  
 
 ||----------------------------------|----------------------|
 ||o-(4)-(4)-(4)-(4)-(4)-(4)-(4)-(4)-|----------------------|
 ||---5---5--(5)--5---5---5---5---5--|-8-8-(8)-8------------|
 ||---5---5--(5)--5---5---5---5---5--|-8-8-(8)-8-8-8-(8)-8--|
 ||o--3---3--(3)--3---3---3---3---3--|-6-6-(6)-6-8-8-(8)-8--|
 ||----------------------------------|-----------6-6-(6)-6--|

[Ab5]E E +E E E E E E W [Bb5]W
 
 |--------------------||----------|----------|
 |-------------------o||----------|----------|
 |--------------------||----------|----------|
 |-6-6-(6)-6-6-6-6-6--||-6--------|-8--------|
 |-6-6-(6)-6-6-6-6-6-o||-6--------|-8--------|
 |-4-4-(4)-4-4-4-4-4--||-4--------|-6--------|

D.C. al Coda
D.C. al Coda
[Ab5] [Bb] Gtr III
\7
TP
S S E +E E E E E E S S E +E E H
 
 |---------------------|---------------------------|
 |---------------------|---------------------------|
 |---------------------|-(7)-(7)-(7)-(7)-(7)-------|
 |-6-6-6-(6)-6-6-6-6-6-|--8---8---8--(8)--8--x-----|
 |-6-6-6-(6)-6-6-6-6-6-|--8---8---8--(8)--8--x-----|
 |-4-4-4-(4)-4-4-4-4-4-|--6---6---6--(6)--6--x-----|

Verse
&
[Cm]Gtr I
 
 PM| PM----------------| PM-------------

E S S +E E E S S S S E E S S +E E E S S S S E
 
 |---------------------------|---------------------------|
 |-----(4)-(4)---------------|-----(4)-(4)---------------|
 |------5--(5)---------------|------5--(5)---------------|
 |-5-5--5--(5)-5-5-5-5-5-5-5-|-5-5--5--(5)-5-5-5-5-5-5-5-|
 |-3-3--3--(3)-3-3-3-3-3-3-3-|-3-3--3--(3)-3-3-3-3-3-3-3-|
 |---------------------------|---------------------------|

[Eb]  
 
 ---| PM----------------| PM----------|

E S S +E E E S S S S E E S S +E E E S S S S E
 
 |-------------------------|---------------------------|
 |-----8-(8)---------------|-----8-(8)-----------------|
 |-----8-(8)---------------|-----8-(8)-----------------|
 |-8-8-8-(8)-8-8-8-8-8-8-8-|-8-8-8-(8)-8-8-8-8-8-8-8---|
 |-6-6-6-(6)-6-6-6-6-6-6-6-|-6-6-6-(6)-6-6-6-6-6-6-6---|
 |-------------------------|---------------------------|

[Bb]  
 
 PM| PM----------------| PM-------------

E S S +E E E S S S S E E S S +E E E S S S S E
 
 |-------------------------|-------------------------|
 |-------------------------|-------------------------|
 |-----7-(7)---------------|-----7-(7)---------------|
 |-----8-(8)---------------|-----8-(8)---------------|
 |-8-8-8-(8)-8-8-8-8-8-8-8-|-8-8-8-(8)-8-8-8-8-8-8-8-|
 |-6-6-6-(6)-6-6-6-6-6-6-6-|-6-6-6-(6)-6-6-6-6-6-6-6-|

[G5] Gtr III
\7
 
 ---| PM----------| TP

E S S +E E E S S S S E W
 
 |-------------------------|-------|
 |-------------------------|-------|
 |-------------------------|-------|
 |-----5-(5)---------------|-x-----|
 |-5-5-5-(5)-5-5-5-5-5-5-5-|-x-----|
 |-3-3-3-(3)-3-3-3-3-3-3-3-|-x-----|

[Cm]Gtr I
S S E +E E E E E E S S E +E E E E E E
 
 |-------------------------------------|-------------------------------------|
 |-(4)-(4)-(4)-(4)-(4)-(4)-(4)-(4)-(4)-|-(4)-(4)-(4)-(4)-(4)-(4)-(4)-(4)-(4)-|
 |--5---5---5--(5)--5---5---5---5---5--|--5---5---5--(5)--5---5---5---5---5--|
 |--5---5---5--(5)--5---5---5---5---5--|--5---5---5--(5)--5---5---5---5---5--|
 |--3---3---3--(3)--3---3---3---3---3--|--3---3---3--(3)--3---3---3---3---3--|
 |-------------------------------------|-------------------------------------|

[Eb] S S E +E E E E E E S S E +E E E E E E
 
 |-------------------------------------|--------------------------------------|
 |-(8)-(8)-(8)-(8)-(8)-(8)-(8)-(8)-(8)-|-(8)-(8)-(8)-(8)-(8)-(8)-(8)-(8)-(8)--|
 |--8---8---8--(8)--8---8---8---8---8--|--8---8---8--(8)--8---8---8---8---8---|
 |--8---8---8--(8)--8---8---8---8---8--|--8---8---8--(8)--8---8---8---8---8---|
 |--6---6---6--(6)--6---6---6---6---6--|--6---6---6--(6)--6---6---6---6---6---|
 |-------------------------------------|--------------------------------------|

[Bb] S S E +E E E E E E S S E +E E E E E E
 
 |-------------------------------------|-------------------------------------|
 |-------------------------------------|-------------------------------------|
 |-(7)-(7)-(7)-(7)-(7)-(7)-(7)-(7)-(7)-|-(7)-(7)-(7)-(7)-(7)-(7)-(7)-(7)-(7)-|
 |--8---8---8--(8)--8---8---8---8---8--|--8---8---8--(8)--8---8---8---8---8--|
 |--8---8---8--(8)--8---8---8---8---8--|--8---8---8--(8)--8---8---8---8---8--|
 |--6---6---6--(6)--6---6---6---6---6--|--6---6---6--(6)--6---6---6---6---6--|

D.S. al Dbl. Coda
[F] S S E +E E E E E E [G] S S E +E E E E E E
 
 |----------------------------------------------|-----------------------------------------------|
 |-(10)-(10)-(10)-(10)-(10)-(10)-(10)-(10)-(10)-|-(12)-(12)-(12)-(12)-(12)-(12)-(12)-(12)-(12)--|
 |--10---10---10--(10)--10---10---10---10---10--|--12---12---12--(12)--12---12---12---12---12---|
 |--10---10---10--(10)--10---10---10---10---10--|--12---12---12--(12)--12---12---12---12---12---|
 |---8----8----8---(8)---8----8----8----8----8--|--10---10---10--(10)--10---10---10---10---10---|
 |----------------------------------------------|-----------------------------------------------|

Guitar Solo
&&
[Cm]Gtr I
S S E +E E E E E E S S E +E E E E E E
| | | | | | | | | | | | | | | | | |
( [/]Ta[/]b [/]fro[/]m: [/]ht[/]tp[/]:/[/]/w[/]ww.gu[/]ita[/]rt[/]abs[/].c[/]c/t[/]abs[/]/b/ba[/]d_[/]religion/grains_of_wrath_tab.html )
Gtr II
E E +E E H +H E. E. E
 
 |---------------------|---------------------------|
 |---------------------|---------------------------|
 |-5---5-(5)-7-8-------|-(8)----------/8----7----5-|
 |---------------------|---------------------------|
 |---------------------|---------------------------|
 |---------------------|---------------------------|

[Eb]S S E +E E E E E E S S E +E E E E E E
| | | | | | | | | | | | | | | | | |
[/] [/] [/] [/] [/] [/] [/] [/] [/] [/] [/] [/] [/] [/] [/] [/] [/] [/] 
[E] [E] [+E] [E] [B] [+B] [B]  
 
 |---------------------|----------------------|
 |---------------------|--------------4-------|
 |-3---3-(3)-5---------|----------------------|
 |-------------5-------|-(5)------------------|
 |---------------------|----------------------|
 |---------------------|----------------------|

[Bb]S S E +E E E E E E S S E +E E E E E E
| | | | | | | | | | | | | | | | | |
[/] [/] [/] [/] [/] [/] [/] [/] [/] [/] [/] [/] [/] [/] [/] [/] [/] [/] 
~~~~~~~~~~~~~~~~~~~~~~~~~~~~~~~~~~~~~~~~~~~~~~~~~~
Q. S S H +H E. E. E
 
 |-----------------------|--------------------------|
 |-3---------------------|------------------------3-|
 |-----------3s5-3-------|-(3)----------3----5------|
 |-----------------------|--------------------------|
 |-----------------------|--------------------------|
 |-----------------------|--------------------------|

[G]S S E +E E E E E E S S E +E E E E E E
| | | | | | | | | | | | | | | | | |
[/] [/] [/] [/] [/] [/] [/] [/] [/] [/] [/] [/] [/] [/] [/] [/] [/] [/] 
~~~~~~~~~~~~~~~~~~~~~~~~~~~~~~~~~~~~~~~~~~~~~
Q. E H E. +E. E H
 
 |---------------------|-----------------------------|
 |-4---------3-3-------|-6b8-----(6)------6b8r=======|
 |---------------------|----------------8------------|
 |---------------------|-----------------------------|
 |---------------------|-----------------------------|
 |---------------------|-----------------------------|

[Cm] S S E +E E E E E E S S E +E E E E E E
| | | | | | | | | | | | | | | | | |
[/] [/] [/] [/] [/] [/] [/] [/] [/] [/] [/] [/] [/] [/] [/] [/] [/] [/] 
~~~~~~~~~~~~~~~~~~~~~~~~~~~~~~~~~~~~~~~~~~~~~~~~~~~~~~~~~~~~~~~~~~~~~~~~~~~~~~~~~~~
E E S S E E E E E E E E E H
 
 |-----------------------------------------------|------------------------------------|
 |-----------------------------------------------|------------------------11b13r======|
 |-10b12r==10b12r10b12-10-8-10b12r10b12-10-10b12-|-10b12r==10b12-10-10b12-------------|
 |-----------------------------------------------|------------------------------------|
 |-----------------------------------------------|------------------------------------|
 |-----------------------------------------------|------------------------------------|

[Eb] S S E +E E E E E E S S E +E E E E E E
| | | | | | | | | | | | | | | | | |
[/] [/] [/] [/] [/] [/] [/] [/] [/] [/] [/] [/] [/] [/] [/] [/] [/] [/] 
<
~~~~~~~~~~~~~~~~~~~~~~~~~~~~~~~~~~~~~
E. E. E H +H E E E E
 
 |------------------------------|------------------------------|
 |-11b13r====11-----11-11-------|-(11)--------------------16---|
 |------------------------------|-------------------12-15------|
 |------------------------------|---------------/15------------|
 |------------------------------|------------------------------|
 |------------------------------|------------------------------|

[Bb] S S E +E E E E E E S S E +E E E E E E
| | | | | | | | | | | | | | | | | |
[/] [/] [/] [/] [/] [/] [/] [/] [/] [/] [/] [/] [/] [/] [/] [/] [/] [/] 
~~~~~~~~~~~~~~~~~~~~~~~~~~~~~~~~~~~~~~~~~~
E. E. E H Q. E H
 
 |----------------------------|--------------------------------|
 |-18------16-----------------|--------------------------------|
 |----------------15-15-------|-15b17r=======15b17-15b17-------|
 |----------------------------|--------------------------------|
 |----------------------------|--------------------------------|
 |----------------------------|--------------------------------|

F G(type 2)
S S E +E E E E E E S S E +E E E E E E
| | | | | | | | | | | | | | | | | |
[/] [/] [/] [/] [/] [/] [/] [/] [/] [/] [/] [/] [/] [/] [/] [/] [/] [/] 
>
~~~~~~~~~~~~~~~~~~~~~~~~~~~
H H W
 
 |----------------------|---------------------|
 |-15----------16-------|-15------------------|
 |----------------------|---------------------|
 |----------------------|---------------------|
 |----------------------|---------------------|
 |----------------------|---------------------|

Chorus
[Cm]  
[E] [E] [+E] [E] [E] [E] [E] [E]  
 
 ||----------------------------------|
 ||o-(4)-(4)-(4)-(4)-(4)-(4)-(4)-(4)-|
 ||---5---5--(5)--5---5---5---5---5--|
 ||---5---5--(5)--5---5---5---5---5--|
 ||o--3---3--(3)--3---3---3---3---3--|
 ||----------------------------------|

[Eb5]E E +E E [Bb5]E E +E E [Ab5]E E +E E E E E E W
 
 |---------------------|--------------------||------|
 |---------------------|-------------------o||------|
 |-8-8-(8)-8-----------|--------------------||------|
 |-8-8-(8)-8-8-8-(8)-8-|-6-6-(6)-6-6-6-6-6--||-6----|
 |-6-6-(6)-6-8-8-(8)-8-|-6-6-(6)-6-6-6-6-6-o||-6----|
 |-----------6-6-(6)-6-|-4-4-(4)-4-4-4-4-4--||-4----|

[Bb5] [Ab5] [Bb] Gtr III
\7
TP
W S S E +E E E E E E S S E +E E H
 
 |----------|---------------------|---------------------------|
 |----------|---------------------|---------------------------|
 |----------|---------------------|-(7)-(7)-(7)-(7)-(7)-------|
 |-8--------|-6-6-6-(6)-6-6-6-6-6-|--8---8---8--(8)--8--x-----|
 |-8--------|-6-6-6-(6)-6-6-6-6-6-|--8---8---8--(8)--8--x-----|
 |-6--------|-4-4-4-(4)-4-4-4-4-4-|--6---6---6--(6)--6--x-----|

Outro
[Cm]Gtr I
S S E +E E E E E E S S E +E E E E E E
| | | | | | | | | | | | | | | | | |
[/] [/] [/] [/] [/] [/] [/] [/] [/] [/] [/] [/] [/] [/] [/] [/] [/] [/] 
Gtr II
E E +E E H +H E. E. E
 
 |---------------------|---------------------------|
 |---------------------|---------------------------|
 |---------------------|---------------------------|
 |---------------------|---------------------------|
 |-3---3-(3)-5S6-------|-(6)----------/6----5----3-|
 |---------------------|---------------------------|

[Eb]S S E +E E E E E E S S E +E E E E E E
| | | | | | | | | | | | | | | | | |
[/] [/] [/] [/] [/] [/] [/] [/] [/] [/] [/] [/] [/] [/] [/] [/] [/] [/] 
Q. E H +H Q Q
 
 |---------------------|----------------------|
 |---------------------|----------------------|
 |---------------------|----------------------|
 |---------------------|----------------------|
 |-1---------3---------|--------------6---6---|
 |-------------3-------|-(3)------------------|

[Bb]S S E +E E E E E E S S E +E E E E E E
| | | | | | | | | | | | | | | | | |
[/] [/] [/] [/] [/] [/] [/] [/] [/] [/] [/] [/] [/] [/] [/] [/] [/] [/] 
Q. E H +H E. E. E
 
 |---------------------|--------------------------|
 |---------------------|--------------------------|
 |---------------------|--------------------------|
 |---------------------|--------------------------|
 |-5---------3---------|------------------------5-|
 |-------------6-------|-(6)----------6----8------|

[G]S S E +E E E E E E S S E +E E E E E E
| | | | | | | | | | | | | | | | | |
[/] [/] [/] [/] [/] [/] [/] [/] [/] [/] [/] [/] [/] [/] [/] [/] [/] [/] 
Q. E H +H Q Q
 
 |---------------------|----------------------|
 |---------------------|----------------------|
 |---------------------|----------------------|
 |---------------------|----------------------|
 |-5---------6-5-------|-(5)----------6---5---|
 |---------------------|----------------------|

[Cm]S S E +E E E E E E S S E +E E E E E E
| | | | | | | | | | | | | | | | | |
[/] [/] [/] [/] [/] [/] [/] [/] [/] [/] [/] [/] [/] [/] [/] [/] [/] [/] 
E E +E E H +H E. E. E
 
 |---------------------|---------------------------|
 |---------------------|---------------------------|
 |---------------------|---------------------------|
 |---------------------|---------------------------|
 |-3---3-(3)-5S6-------|-(6)----------/6----5----3-|
 |---------------------|---------------------------|

[Eb]S S E +E E E E E E S S E +E E E E E E
| | | | | | | | | | | | | | | | | |
[/] [/] [/] [/] [/] [/] [/] [/] [/] [/] [/] [/] [/] [/] [/] [/] [/] [/] 
Q. E H +H Q Q
 
 |---------------------|----------------------|
 |---------------------|----------------------|
 |---------------------|----------------------|
 |---------------------|----------------------|
 |-1---------3---------|--------------6---6---|
 |-------------3-------|-(3)------------------|

[Bb]S S E +E E E E E E S S E +E E E E E E
| | | | | | | | | | | | | | | | | |
[/] [/] [/] [/] [/] [/] [/] [/] [/] [/] [/] [/] [/] [/] [/] [/] [/] [/] 
Q. E H +H E. E. E
 
 |---------------------|--------------------------|
 |---------------------|--------------------------|
 |---------------------|--------------------------|
 |---------------------|--------------------------|
 |-5---------3---------|------------------------5-|
 |-------------6-------|-(6)----------6----8------|

F G(type 2)
S S E +E E E E E E S S E +E E E E E E
| | | | | | | | | | | | | | | | | |
[/] [/] [/] [/] [/] [/] [/] [/] [/] [/] [/] [/] [/] [/] [/] [/] [/] [/] 
Q. E H Q. E Q Q
 
 |---------------------|---------------------|
 |---------------------|---------------------|
 |---------------------|---------------------|
 |---------------------|---------------------|
 |-8-------------------|-5---------6-5---6---|
 |-----------8-8-------|---------------------|

[Cm]W +W +W +W
| | | |
[/] [/] [/] [/] 
W +W +W +W
 
 |----------|------------|------------|--------*|
 |----------|------------|------------|--------*|
 |----------|------------|------------|--------*|
 |----------|------------|------------|--------*|
 |-3--------|-(3)--------|-(3)--------|-(3)----*|
 |----------|------------|------------|--------*|

Duration Legend
 
 ---------------
 W - whole; H - half; Q - quarter; E - 8th; S - 16th; T - 32nd; X - 64th; a - acciaccatura

+ - note tied to previous; . - note dotted; .. - note double dotted
Uncapitalized letters represent notes that are staccato (1/2 duration)
Irregular groupings are notated above the duration line
Duration letters will always appear directly above the note/fret number it represents the
duration for. Duration letters with no fret number below them represent rests. Multi-
bar rests are notated in the form Wxn, where n is the number of bars to rest for. Low
melody durations appear below the staff
Tablature Legend
 
 ----------------

h - hammer-on
p - pull-off
b - bend
pb - pre-bend
r - bend release (if no number after the r, then release immediately)
/\ - slide into or out of (from/to "nowhere")
s - legato slide
S - shift slide
- natural harmonic
(n) - artificial harmonic
n(n) - tapped harmonic
~ - vibrato
tr - trill
T - tap
TP - trem. picking
PM - palm muting
\n/ - tremolo bar dip; n = amount to dip
\n - tremolo bar down
n/ - tremolo bar up
/n\ - tremolo bar inverted dip
= - hold bend; also acts as connecting device for hammers/pulls
- volume swell (louder/softer)
x - on rhythm slash represents muted slash
o - on rhythm slash represents single note slash
Misc Legend
 
 -----------

| - bar
|| - double bar
||o - repeat start
o|| - repeat end
*| - double bar (ending)
: - bar (freetime)
$ - Segno
& - Coda
Tempo markers - = BPM(8/16=s8/s16), where s8 = swing 8ths, s16 = swing 16ths
***************************************************************************************
* Generated using Power Tab Editor by Brad Larsen - http://powertab.guitarnetwork.org *
***************************************************************************************

Important: The song above is NOT stored on the Chordie server. The original song is hosted at www.guitartabs.cc. Chordie works as a search engine and provides on-the-fly formatting. Chordie does not index songs against artists'/composers' will. To remove this song please click here.

Text color:
Chord color:
Chord grids: 
Font size:    
Page size: 

Ab5 B Bb Bb5 Cm E Eb Eb5 F G G5
Rate #1 of 5 versions

Login - add to songbook

SHARE PAGE  




You need to log in to post comments