Guitar Tabs, Chords and Lyrics
Server problems seems to be fixed. Chordie has been experiencing problems with songs disappearing. These issues now seems to be fixed, but still verifying the fix. If you find anything strange, please email admin@chordie.com.


All Good Reasons  Barefoot Truth

 
 ----------------------------------------------------------------------------

All Good Reasons – Barefoot Truth
 
 ----------------------------------------------------------------------------

Tabbed by: j driscoll
Email: admin@barefoottruth.com
Tuning: DADF#AD
I recorded the rhythm guitar lap style on a Lazy River Weissenborn style Hallowneck,
by Rance White. From low to high the tuning is DADF#AD.
The picking pattern varies a bit… I tend to hit the first two strings open a lot in
the licks and chords. So just listen to the recording to hear those.
(Intro)
[D] [A] [G]  
 
 |---------------------------------------------------------------------------|
 |-------------------------/7-5p0--------------------------------------------|
 |---------0-----------------------0-----7/8-7--------5-----------0----------|
 |0h2p0-/4---4—2p0------0-------------7---------7---5---0h2p0-/4---4-2p0-----|
 |-----------------2p0--------------------------7---5--------------------2p0-|
 |----------------------0-------------7-------------5------------------------|

[D] [A] [G] [D] [A] [G]  
 
 |------------------------------0—-0—-0—-0-----------------------------------|
 |---/7-5p0---------------------5--4—-2—-0-------/7-5p0----------------------|
 |----------0---7/8-7--------5--------------------------0----7/8-7-------5---|
 |-0----------7-------7----5------------------0------------7-------7---5-----|
 |--------------------7----5---------------------------------------7---5-----|
 |-0----------7------------5------------------0------------7-----------5-----|

[D] [A] [G]  
 
 |-----------------------------------------------------------|
 |----------------------------/7-5p0-------------------------|
 |----------0---1p0------------------0---7/8-7----------\----|
 |-0h2p0-/4---4—-----2p0---0-----------7-------7---5----\----|
 |---------------------------------------------7---5----\----|
 |-------------------------0-----------7-----------5----\----|

( Tab from: http://www.guitartabs.cc/tabs/b/barefoot_truth/all_good_reasons_tab.html )
[D]holding o[A]n to what we've g[G]ot cause what we've got is who we are
[D]and who we ar[A]e is everyth[G]ing
[D]when we're turned ar[A]ound and out of luck[G] make my way back to the start
[D]and know that's wher[A]e i'll plant my fe[G]et
[D]well life is call[A]ing but you[G] need healing now
for al[D]l good reas[A]ons cha[G]nge is coming
well ch[D]ange is com[A]ing for a[G]ll good reasons now
but yo[D]u need hea[A]ling for lif[G]e is calling
(Chorus)
[D]so hold up your head thi[A]nk of brighter days[G] who cares
they don't look at you the same way
[D]make up the time this a[A]in't the end you bet[G]ter let it go you better let it mend
[D]so hold up your head thi[A]nk of brighter days[G] who cares
they don't look at you the same way
[D]make up the time this a[A]in't the end you bet[G]ter let it go you better let it mend
(replay intro, listen for slight variation at end)
(verse 2)
[D]so sing it loud let your vo[A]ice fill up this space
[G]cause if the energy's good its gonna take the place
[D]well don't fight it, invite i[A]t, gonna set you free
[G]well step into the light it is happening
[D]well if it's good, it feels [A]right
[G]well love will take us to the fight yea
[D]the more we give the [A]less we take[G] i've never felt so, so awake
(Bridge)
[Bm] [G] [D] [A]  
 
 |----------------------------------------------|
 |----------------------------------------------|
 |---0-------5---------0------------------------|
 |-9-------5--------/4-----4/2---2--------------|
 |---------5-------------------0----4/5\4--p0---|
 |-9---9---5---5-----0---0----------------------|

cause [Bm]life is cal[G]ling but yo[D]u need hea[A]ling now
for a[Bm]ll good reas[G]ons cha[D]nge is co[A]ming
well [Bm]change is co[G]ming for a[D]ll good re[A]asons now
but y[Bm]ou need heal[G]ing for l[A]ife is calling
(Chorus x2)

Important: The song above is NOT stored on the Chordie server. The original song is hosted at www.guitartabs.cc. Chordie works as a search engine and provides on-the-fly formatting. Chordie does not index songs against artists'/composers' will. To remove this song please click here.

Text color:
Chord color:
Chord grids: 
Font size:    
Page size: 

A Bm D G
Rate #1 of 2 versions

Login - add to songbook

SHARE PAGE  




You need to log in to post comments