Guitar Tabs, Chords and Lyrics
Server problems seems to be fixed. Chordie has been experiencing problems with songs disappearing. These issues now seems to be fixed, but still verifying the fix. If you find anything strange, please email admin@chordie.com.


Trespasser  Barefoot Truth

 
 -------------------------------------------------------------------------------

Trespasser ? Barefoot Truth
 
 -------------------------------------------------------------------------------

Tabbed by: Eric White
Email: ewhite1989@yahoo.com
Tuning: EADGBE
(Intro)
 
 e|----------------------------------------------------------|
 B|----------------------------------------------------------|
 G|----------------------------------------------------------|
 D|-------------11-------------------4\----------------------|
 A|-----11----3----33-----11------/5-------------------------|
 E|-333----33---------333----33------------------------------|
 e|-------------------------------------------------------------|
 B|-------------------------------------------------------------|
 G|-----------------------------------------0-------------------|
 D|-------------11--------------0h1p0---------------------------|
 A|-----11----3----33-----11----------3-1p0---------------------|
 E|-333----33---------333----33---------------------------------|

[Gm]If you've found that you've [Cm]gone astray
[Gm]trace your steps back don't [D]delay
[Gm]Don't tempt the tiger when h[Cm]e's out of his cage,
[Gm]you trespass here we gonna p[D]ut you away
[Gm]You never stop to thing abou[Cm]t whats compromised well
[Gm]your wallets full now but th[D]ere's uncertainty in your eyes,
[Gm]I do despise you as a matter[Cm] of fact
[Gm]I'll keep trespassing on and[D] I'm not looking back
(Chorus)
[Cm]Don't say that you believe i[Gm]f you don't b[Bb]elieve in what you[D] say
[Gm]And when the stru[Cm]ggles at your feet, [D]don't look the other way
[Cm]Cause all that you have will [Gm]be everythin[Bb]g you los[D]e
[Gm]The choi[Cm]ce is yo[D]urs choose
(verse 2)
[Gm]If you've found that you've [Cm]gone astray
[Gm]trace your steps back don't [D]delay
[Gm]Don't tempt the tiger when h[Cm]e's out of his cage,
[Gm]you trespass here we gonna p[D]ut you away
(Chorus)
(Bridge)
Count your blessings for now
they won't be here for long
The sins of our fathers is what
you base life upon
Just look the other way
and I'll keep trespassing on
 
 e|--------------------------------------------------------------------------|
 B|--------------------------------------------------------------------------|
 G|---------------------------------5--5-------------------------------------|
 D|----------------------------6----4--4-------------------------------------|
 A|--6-5------6-5----6-5-6-8-6-5----5--5-------------------------------------|
 E|--------------------------------------------------------------------------|

[Cm]Well if you stray too f[Bb]ar you take your li[D]fe in your ha[Gm]nds
It's on the pa[Cm]per that you sig[Bb]ned I thought you'd und[D]erstand
I got no qu[Cm]arrel with y[Bb]ou I see the wor[D]ds that I sign[Gm]ed
But this ain't [Cm]no private proper[Bb]ty so please spa[D]re me that line
You know your la[Cm]undering [Bb]on this good p[D]iece of the earth[Gm]
And every d[Cm]ollar that it e[Bb]arns you is how you m[D]easure it's worth
So save your se[Cm]lf-righteous[Bb]ness for some ot[D]her man's [Gm]son
Cause this ain'[Cm]t no mans la[Bb]nd that I'm tresp[D]assing on...
So ill ke[D]ep trespassing on
Well if you find that you've gone astray
trace your steps back don't delay
Don't tempt the tiger when he's out of his cage, you trespass here
we gonna put you away
You never stop to think about what's compromised
well your wallets full now but there's uncertainty in your eyes,
I do despise you as a matter of fact I'll keep trespassing on
and I'm not looking back
So you say you disapprove of your company sins
But if you voice your stance might lose the position that you're in
You keep on biding your time while moving up the corporate ladder
Remove your eyes from the struggle as if it don't even matter
So take your tensions out on me well i don't mind that
I'm only offering the truth but you can't handle that
And so I must despise you as a matter of fact
I'll keep trespassing on and I'm not looking back
Well if you find that you've gone astray
trace your steps back don't delay
You may have had your way but won't be denied
you've lit a fire in the truth
And it's about to ignite
[Gm]Oh [Dm]all[F] i [Cm]hea[Cm]ve a[Dm]re [Bb]my [Cm] [Gm] [Gm]
footsteps behind Oh
Chords used
[Cm] [Gm] [Bb] [D] [F] [Dm]  
 
 e|--4-----3----1----5---8----5------|
 B|--4-----3----3----7---10---6------|
 G|--5-----3----3----7---10---7------|
 D|--5-----5----3----7---10---7------|
 A|--3-----5----1----5---8----5------|
 E|--------3-------------------------|


Important: The song above is NOT stored on the Chordie server. The original song is hosted at www.guitartabs.cc. Chordie works as a search engine and provides on-the-fly formatting. Chordie does not index songs against artists'/composers' will. To remove this song please click here.

Text color:
Chord color:
Chord grids: 
Font size:    
Page size: 

Bb Cm D Dm F Gm
Rate #2 of 2 versions

Jango Player

Login - add to songbook

SHARE PAGE  




You need to log in to post comments