Guitar Tabs, Chords and Lyrics
Server problems seems to be fixed. Chordie has been experiencing problems with songs disappearing. These issues now seems to be fixed, but still verifying the fix. If you find anything strange, please email admin@chordie.com.


Aluminum  Barenaked Ladies

 
 -------------------------------------------------------------------------------

ALUMINUM (ACOUSTIC)- Barenaked Ladies
 
 -------------------------------------------------------------------------------

Tabbed by: Barry Miles
Tabbed from the acoustic "Bathroom session" on youtube.
Tuning: Capo on 2nd fret WITHOUT covering the low E
INTRO
 
 e|-----0-------0-0-|------0-------0-0-|-----0-------0---|-0---------|
 B|-----1-------3-3-|------3-------3---|-----1-------3---|-3---------|
 G|-----0-0-----0-2-|------2-----0-2---|-----0-0-----0-0-|-2---------|
 D|---0---0---0---0-|----0-------0-----|---0---0---0-----|-0---------|
 A|---------------0-|----0-----0-------|-----------------|-0---------|
 E|-1-------3-----0-|----------0-------|-1-------3-------|-0---------|

VERSE
x3
 
 e||-----0-------0---|-----0-------0---||-------0----------|------0-----0---0-|
 B||-----3-------3---|-----3-------3---||-----1-----1----1-|------3-----3---3-|
 G||---2---2---0---0-|---0---0---0---0-||-----0--------0---|----0-----0-------|
 D||-0---------------|-----------------||---0--------------|-/3-----2-----0---|
 A||---------3-------|-2-------1-------||------------------|------------------|
 E||-----------------|-----------------||-1----------------|------------------|

CHORUS (strumming)
Fmaj9add6 (1x0010) - or just F
G6 (3x0030) - G
D5add9 (000230) - D
(he also hammers on a bar with the first finger on the first string to give a real D (000232)
A[F]lumi[G]num to [D]me, alu[F]mini[G]um to [D]some
You can [F]shine like [G]silver [D]all you want
But you're [F]just a[G]luminum[D]
VERSE
CHORUS
BRIDGE
Cadd9 (x32033) - C
G (320033) - G
Real D (000232) - Real D
Every[F]time you're [G]near I for[D]get[C]
When you [F]leave, you leave [G]only regr[D]et
Every[C]time you're [G]near I for[D]get
F G (Real D)
Everything
VERSE
CHORUS
End on D5add9
************************************
| / slide up
| \ slide down
| h hammer-on
| p pull-off
| ~ vibrato
| + harmonic
| x Mute note
| b Bend
| pb Pre-bend
| br Bend release
| pbr Pre-bend release
| brb Bend release bend
************************************

Important: The song above is NOT stored on the Chordie server. The original song is hosted at www.guitartabs.cc. Chordie works as a search engine and provides on-the-fly formatting. Chordie does not index songs against artists'/composers' will. To remove this song please click here.

Text color:
Chord color:
Chord grids: 
Font size:    
Page size: 

C D F G
Rate #1 of 10 versions

Jango Player

Login - add to songbook

SHARE PAGE  




You need to log in to post comments