Guitar Tabs, Chords and Lyrics
Server problems seems to be fixed. Chordie has been experiencing problems with songs disappearing. These issues now seems to be fixed, but still verifying the fix. If you find anything strange, please email admin@chordie.com.


Don't Call Me Peanut  Bayside

Ok, I've seen a couple of these on this site, played them through, and they didn't work
hundred percent, so I added on, experimented, and this should be about right...ok, here
go
 
 [------0~-----------0~-----------0~~-|-1~/4]
 [------0~-----------1~-----------3~~-|-1~/4]
 [------0~---------2------------4-----|-2~/5]
 [----2----------3------------5-------|-3~/6]
 [--3---------------------------------|-3~/6]
 [------------------------------------|-1~/4]

Drink Up Beautiful...
I spiked your cup....
I've got... ...so much trapped!
 
 d[---------------------------------0-0-|
 A[------1------------1------------3-3--|
 F[-----------------2------------4------|
 C[----2----------3------------5--------|
 G[--3----------------------------------|
 D[-------------------------------------|

It's all because of you...
 
 d[---------------------------------------|
 A[------3------------1------1~---1~------|
 F[-----4-----------2-------------3~------|
 C[----5----------3----------2~---2~------|
 G[--------------------------3~---3~------|
 D[---------------------------------------|

So I figured you might like some back
And when I s[Am]ee her, I'll [E7]tell her what's been[F] on my mind
All t[C]hese sleepless n[G7]ights
She'll resi[Am]ght her excuse[E7]s, put my tail betwee[F]n my legs and hide
Like[C] I do All the tim[G7]e
Verse 2:
Chorus:
Bridge...
[Am] [Dm] [G] [C] [G7] [Am]  
And no[Dm]w you say that, you sa[G]y you love me
Well I[C] may have your h[G7]eart, he has yo[Am]ur body
And no[Dm]w you swear that, you're [G]being honest
Well Y[C]ou're not hone[G7]st, you never [Am]could be
There's this part B/tween Bridge and Chorus that I need to figure out, also, the end of
verse is scetchy. You don't have to play Drop D...but if you want it to sound like the
on the CD, it's worth it...This song rocks...you could probily get some babes with
this really sucks and I'm oblivious, E-mail me at hockey61guy@yahoo.com
BAYSIDE RULES!!! The Blakester
P.S. If anyone can play anything by The Junior Varsity or June, hook me up!!!

Important: The song above is NOT stored on the Chordie server. The original song is hosted at www.guitartabs.cc. Chordie works as a search engine and provides on-the-fly formatting. Chordie does not index songs against artists'/composers' will. To remove this song please click here.

Text color:
Chord color:
Chord grids: 
Font size:    
Page size: 

Am C Dm E7 F G G7
Rate #1 of 6 versions

Login - add to songbook

SHARE PAGE  




You need to log in to post comments